Song name
# A B C D E F G H I J K L M N O P Q R S T U V W X Y Z

Wilco - Please Be Patient With Me tab

** This is just a little bit of the song, I just started learning it. **


---6------==----4------==----3------3-3---3---==-----------------------|
-------8--==--6-----6--==-------6--------6----==----4---------4--------|
------8---==-----------==------4--------------==--------5-7------5-7---|
----------==-----------==---------------------==-----------------------|
-6------6-==--3---3--3-==---------------------==-----------------------|
----------==-----------==--3-----3------3---3-==--4----4-4-4--------4--|

-------------------==
---3-------3-3-----==
------3---------3--==      REPEAT
-------------------==
-------------------==
-3---3-3-------3-3-==

*Sorry this is all I got so far*

*NOTE*  the   ==   are for rythem purposes, indicating a pause and/or an
              ==   instance in which you need to change the position of your
              ==   hand.
              ==
              ==
              ==


*ANOTHER NOTE*

This song uses all bar chords so if the numbers on the tabs are confusing you it may be
you need to bar a fret.

If you have any questions or comments feel free to email me at   andrewmichael5@hotmail.com

Please label the subject: GUITAR TABS


Thank you :)
Tap to rate this tab
# A B C D E F G H I J K L M N O P Q R S T U V W X Y Z