Song name
# A B C D E F G H I J K L M N O P Q R S T U V W X Y Z

Wilco - Ill Fight tab

-------------------------------------------------------------------------------
			     I'll Fight (intro) - Wilco
-------------------------------------------------------------------------------
Tabbed by: Jeff

this might be easier to play with a capo'd setup, but I'll leave that to capo owners to figure out

e|-----------------------------------------------------------------------|
B|--4----(4)------(4)------(4)-------------------------------------------|
G|--3h5---3--3h5---3--3h5---3--3h5p3-----3------0----0h1----3------------|
D|--5--------5----------5-------------5---------1------------------------|
A|-----------------------------------------------------------------------|
E|-----------------------------------------------------------------------|

e|-----------------------------------------------4h6p4-----4h6p4---------|
B|-----------------------------------------------4---------4-------------|
G|---0h1--0--------------------------------------------------------------|
D|---------------3-3h5-3------3------------------------------------------|
A|-------------------------6------3--------------------------------------|
E|-----------------------------------------------------------------------|

e|---3h4--3--1--3--------------------------------------------------------|
B|---4-------------------------------------------------------------------|
G|---3-----------------0----0h1---3-1--0---------------------------------|
D|---------------------1---------------------3-----Gm--------------------|
A|-----------------------------------------------------------------------|
E|-----------------------------------------------------------------------|


| /  slide up
| \  slide down
| h  hammer-on
| p  pull-off
| ~  vibrato
| +  harmonic
| x  Mute note
===============================================================================
Tap to rate this tab
# A B C D E F G H I J K L M N O P Q R S T U V W X Y Z