Song name
# A B C D E F G H I J K L M N O P Q R S T U V W X Y Z

Wilco - Spiders Kidsmoke tab

Spiders (Kidsmoke) by Jeff Tweedy/Wilco (Solo Live Version)

Tune to drop d (DADGBE)  and put a capo on fret 3 or 4 (or whatever you're comfortable with)

#1 - Intro and secondary rhythmic part (between vocals)

e|--------------------------------------------------|
B|--------------------------------------------------|
G|-----0---0---0--0h2h0----0---0---0--0h2h0---------|
D|-------4---4---------4-----4---4---------4--------|
A|--0-0-0-0-0-0---------2-2-2-2-2-2-----------------|
E|--0-0-0-0-0-0---------0-0-0-0-0-0-----------------|

#2 - Bridge (you fool with me a kiss of kidsmoke)

e|--------------------------------------------------|
B|-------------2-2--2-3-5-3-2-----------------------|
G|--0-0--0-0---2-2--2-0-0-0-2-----------------------|
D|--2-2--0-2---2-2--0-5-7-5-2-----------------------|
A|--2-2--2-2---0-0--0-------------------------------|
E|--2-2--2-2----------------------------------------|

#3 - Outro (I'll be in my bed... you can be the stone...) the last half is the same as 
last half of the bridge -- listen to it and you can figure it out

e|--------------------------------------------------|
B|-----------0-----0--------------------------------|
G|--7-7--5-5-4-5-5-4------4-4-2-0--2-0---0----------|
D|--7-7--5-5-5-5-5-5-7-5--4-4----0--0-0-4-4-0-------|
A|--5-5--3-3-3-3-3-3---3--2-2-----------------------|
E|--0-0--0-0-0-0-0-0---0--0-0-----------------------|


CHORDS: D G Em A

(#1)

D
Spiders are singing in the salty breeze
G
Spiders are filling out tax returns
D
Spinning out webs of deductions and melodies
G
On a private beach in Michigan

(#1)

D
Why can't they wish their kisses good
G
Why do they miss when their kisses should
D
Fly like winging birds fighting for the keys
G
On a private beach in Michigan

Em                         A
This recent rash of kidsmoke                (this part you play #2)
Em                                 A                       Em
All these telescopic poems
     G
It's good to be alone

(#1)

D
Why can't they say what they want 
G
Why can't they just say what they mean
D
Come clean, listen and talk
G
Hello private callers, IDs blocked

D
The sun will rise, we'll climb into cars
G
The future has a valley and a shortcut around
D
Who will wear the crown of drowning award
G
Hold a private light on a Michigan shore

Em                                   A
You fool me with a kiss of kidsmoke     (this part you play #2)
Em                                 A            Em
From a microscopic home
      G
It's good to be alone

(#3)


I'll be in my bed

You can be the stone

That raises from the dead

And carries us all home 


There's no blood on my hands

I just do as I am told
Tap to rate this tab
# A B C D E F G H I J K L M N O P Q R S T U V W X Y Z