Song name
# A B C D E F G H I J K L M N O P Q R S T U V W X Y Z

Wilco - Spiders Kidsmoke Acoustic tab

Drop D, Capo 2

Chords relative to capo on 2
   D     G     Em    A7
e--2-- ----- --0-- --0--|
B--3-- --3-- --0-- --2--|
G--2-- --0-- --0-- --0--|
D--0-- --0-- --2-- --2--|
A----- --2-- --2-- --0--|
D----- ----- --2-- -----|

Intro played twice
e------------------------------------------------------------------|
B------------------------------------------------------------------|
G-----0-------0-------0---0h2p0-------0-------0-------0---0h2p0----|
D---------4-------4-------------4---------4-------4-------------4--|
A-0-------------------------------2-2---2---2---2---2---2----------|
D-0-0---0---0---0---0---0---------0-0---0---0---0---0---0----------|

D G D G

D
Spiders are singing in the salty breeze
G
Spiders are filling out tax returns
D
Spinning out webs of deductions and melodies
Em                    G
On a private beach in Michigan

Repeat intro

Why can't they wish their kisses good
Why do they miss when their kisses should
Fly like winging birds fighting for the keys
On a private beach in Michigan

Intro once

Em                      A7
  This recent rash of kidsmoke

e-0-0-0-0--|
B-3-2-5-2--|
G-0-0-0-0--|
D-4-2-5-2--|
A-0-0-0-0--|
D----------|

Em                      A7
  All these telescopic poems

e-0-0-3-0--|
B-3-2-5-5--|
G-0-0-0-0--|
D-4-2-5-5--|
A-0-0-0-0--|
D----------|

Em    G
  Its good to be alone

Repeat intro

Why can't they say what they want
Why can't they just say what they mean
Come clean, listen and talk
Hello private callers, IDs blocked

The sun will rise, we'll climb into cars
The future has a valley and a shortcut around
Who will wear the crown of drowning award
Hold a private light on a Michigan shore

Intro once

Em                             A7
  You fool me with a kiss of kidsmoke

e-0-0-0-0--|
B-3-2-5-2--|
G-0-0-0-0--|
D-4-2-5-2--|
A-0-0-0-0--|
D----------|

Em                    A7
  From a microscopic home

e-0-0-3-0--|
B-3-2-5-5--|
G-0-0-0-0--|
D-4-2-5-5--|
A-0-0-0-0--|
D----------|

Em     G
  It's good to be alone

Walk down part: (Rhthym inaccurate)
e----------------------------000-----------------|
B----------------------------222---------0-------|
G-7-5-4-2p0-2--0-----0-------000-----0------0----|
D-7-5-4-----------4-----4-0--222-2s4---4------0--|
A-5-3-2----------------------000-----------------|
D------------------------------------------------|

I'll be in my bed
You can be the stone
That raises from the dead
And carries us all home

There's no blood on my hands
I just do as I am told

Intro once

End
Tap to rate this tab
 
# A B C D E F G H I J K L M N O P Q R S T U V W X Y Z