Wilco - Please Be Patient With Me tab

-------------------------------------------------------------------------------
			     PLEASE BE PATIENT WITH ME - Wilco
-------------------------------------------------------------------------------
Tabbed by:  wrnking

Thanks to the earlier versions for the head start.  I flushed out the bassline, 
fixed the chorus, and made several other corrections.
 
Tuning:  standard
capo III

Intro:  Play the first 2 lines

                                       (***start of instrumental)
     1   +   2   +   3   +   4   +        1   +   2   +   3   +   4   + 
e|-------3-----0---------1------------|-------0---------0-----0-----0--------|
B|-------------------3----------------|-------------3-------------3----------|
G|-------0---0---0-------2-----2------|-------1-------1-------1-------1------|
D|-------------------3-------3---3----|--------------------------------------|
A|---3--------------------------------|--------------------------------------|
E|------------------------------------|---0-------0-------0-------0----------|


     1   +   2   +   3   +   4   +        1   +   2   +   3   +   4   + 
e|------------------------------------|--------------------------------------|
B|-------1---------0-----1-----0------|-------0---------0-----0-----0--------|
G|-------------2-------------2---0----|-------0-----0---------0---0----------|
D|-------3-------3-------3------------|--------------------------------------|
A|------------------------------------|--------------------------------------|
E|---1-------1-------1-------1--------|---0---0---0---0---0---0---0---0------|	


     1   +   2   +   3   +   4   +        1   +   2   +   3   +   4   + 
e|------------------------------------|--------------------------------------|
B|------------------------------------|--------------------------------------|
G|------------------------------------|---------0-------0-------0------------|
D|-------3-----------3---2---0h2------|-----0-------0-------0-------0--------|
A|-------------0----------------------|-0h2---2---2---2---2---2---2---2------|
E|---1---1---1---1---1---1---1---1----|--------------------------------------|	


     1   +   2   +   3   +   4   +        1   +   2   +   3   +   4   + 
e|------------------------------------|--------------------------------------|
B|------------------------------------|--------------------------------------|
G|------------------------------------|---------2-------0--------------------|
D|-------3-----------3---2---0h2------|-----2-------2-------2---2---2--------|
A|-------------0----------------------|---2---2---2---2---2---2---2---2------|
E|---1---1---1---1---1---1---1---1----|--------------------------------------|	



                                                     (***End of instrumental)	
     1   +   2   +   3   +   4   +        1   +   2   +   3   +   4   + 
e|-------0---------0------------------|--------------------------------------|
B|---------2---3-------3---2----------|----------3---------------3-----------|
G|-----0-----------------------0------|-------0------0--------0------0-------|
D|-------2-------2-------2-------2----|------3--------3------0--------0------|
A|---0-------0-------0-------0--------|---1---1---1-------2---1---2----------|
E|------------------------------------|--------------------------------------|	


     1   +   2   +   3   +   4   +        1   +   2   +   3   +   4   + 
e|-------3---0-----------3---0--------|-------1----------1----1---0----------|
B|------------1---------------0-------|---3----------3-------------3---------|
G|-------0----------0----0------------|-------2-------2-------2-------2------|
D|---------------2---------------2----|---3-------3-------1-------3----------|
A|---3-------3---------------3--------|--------------------------------------|
E|-------------------3----------------|--------------------------------------|	

Second verse:  Repeat once from beginning 

Instrumental:  Go to "***Start of instrumental" and play down to "***End of instrumental"

Third verse:  Start from beginning, but instead of the last line, finish with this:

     1   +   2   +   3   +   4   +        1   +   2   +   3   +   4   +   
e|-------3---0-----------3---0--------|-------0---------0-----0-----0--------|
B|------------1---------------0-------|-------------3-------------3----------|
G|-------0----------0----0------------|-------1-------1-------1-------1------|
D|---------------2---------------2----|--------------------------------------|
A|---3-------3---------------3--------|--------------------------------------|
E|-------------------3----------------|---0-------0-------0-------0----------|	

     1   +   2   +   3   +   4   +        1   +   2   +   3   +   4   + 
e|------------------------------------|-------3---0---------------------------|
B|-------1---------0-----1-----0------|------------1----------1------1-----1--|
G|-------------2-------------2---0----|-------0----------0----0----------0-0--|
D|-------3-------3-------3------------|---------------2---------------2----2--|
A|------------------------------------|---3-------3-------3----------------3--|
E|---1-------1-------1-------1--------|---------------------------3-----------|	


************************************

| /   slide up
| \   slide down
| h   hammer-on
| p   pull-off
| ~   vibrato
| +   harmonic
| x   Mute note
| b   Bend
| pb  Pre-bend
| br  Bend release
| pbr Pre-bend release
| brb Bend release bend

************************************
Tap to rate this tab
 
# A B C D E F G H I J K L M N O P Q R S T U V W X Y Z