Song name
# A B C D E F G H I J K L M N O P Q R S T U V W X Y Z

Wilco - Impossible Germany chords

Highlighted       Show chord diagrams
-------------------------------------------------------------------------------
			     Impossible Germany - Wilco
-------------------------------------------------------------------------------


Tuning: Standard

 Asus4	    Am
Impossible Germany
 Cmaj7	    C6
Unlikely Japan
 G	    Em
Wherever you go
 Asus2
Wherever you land

 Asus4	    Am
I'll say what this means to me
 Cmaj7	    C6
I'll do what I can
 G         Em
Impossible Germany
 Asus2
Unlikely Japan

 Cmaj7*    Asus2
The fundamental problem
 Cmaj7*    Asus2
I'll need to face 
 G         Em
"This is important."
 Cmaj7*    Asus2
But I know you're not listening
 Cmaj7*    Asus2
I know you're not listening

This was still new to me
I wouldn't understand
Impossible Germany
Unlikely Japan

This is what love is for
To be at a place
Gorgeous and alone
And face to face

With no larger problems
That need to be erased
And nothing more important
Than to know someone's listening to me
Oh I know you'll be listening to me

CHORDS (the way I play them in this song):

     Asus4     Am        Cmaj7      Cmaj7*     C6        G          E        Asus2
e|---------------------------------------------------------------------------0--------------|
B|----------------------------------0----------------------------------------0--------------|
G|---7---------5----------4---------0----------2-----------------------------2--------------|
D|---7---------7----------2---------2----------2---------5----------2--------2--------------|
A|---0---------0----------3---------3----------3---------5----------2--------0--------------|
E|-------------------------------------------------------3----------0-----------------------|


valcov.
Tap to rate this tab
 
# A B C D E F G H I J K L M N O P Q R S T U V W X Y Z