Song name
# A B C D E F G H I J K L M N O P Q R S T U V W X Y Z

Wilco - Remember The Mountain Bed tab

This is a slightly altered version of http://tabs.ultimate-guitar.com/b/
billy_bragg_and_wilco/remember_the_mountain_bed_solo_tab_998986id_28102010date.htm.

It is based on the Jeff Tweedy performance at Farm Aid 25: http://www.youtube.com/
watch?v=ZVGG97Z6Ovw

comments/suggestions? email me at redefinegravity(AT)gmail(DOT)com
enjoy!!!


Capo on 3rd Fret


e-------2---2222-22------------------------------------------|
B-3-----3---3333-33------------------------------------------|
G-2-----2---2222-22------2-0---------------------0000---0000-|
D-0-----0h4-44444--0-0h2-----4--2-2p0-000---00---0000---0000-|
A-0------------------0-ring-------0---000h2-00h2------2------|
E-------------------------------------333---33--------3------|



e-----------------------------------------=----------------------------|
B----00000-------------------------------2-2222---2222---2222-----2222-|
G----4444420---------------0-------------2-2222---2222---2222-----2222-|
D----0000000-2h4-0----00--00-0-00------2-2-2222---2222-2-2222-----2222-|
A---222222---0-----0h222-0-------------0-0-0000-0-0000-0-0000-0h1-0000-|
E---333333---------3--33----------0/2p0---------0----------------------|



e----2222--22-------------------------------------------------------------|
B----3333--33---22-------------0-00---------------------------------------|
G----4444--444-222-0----0000---0-00-------0--0000-0--0000-0--0000-0--0000-|
D---4-----4-----22-0---0000-0-0-00-4-2-0-0--0000-0--0000-0--0000-0--0000-|
A---2-----2---------0h2-2222--------0---0-0h22222-0h22222-0h22222-0h22222-|
E-------------------3---3333--------------3--3333-3--3333-3--3333-3--3333-|



e---2--22222---------------------------------------2-22222-|
B---3--33333-----1--1111-0--0000-------------------3-33333-|
G---2--22222-----0--0000-0--0000-0--0000-----------2-22222-|
D---0h444444-2-0-0h22222-2--2222-0--0000-0h2p0---0-0-00000-|
A----------------3--3333-0h22222-0h22222-------2-0---------|
E------------------------0--0000-3--3333-------------------|
Tap to rate this tab
# A B C D E F G H I J K L M N O P Q R S T U V W X Y Z