Song name
# A B C D E F G H I J K L M N O P Q R S T U V W X Y Z

Wilco - One Sunday Morning Song For Jane Smileys Boyfriend tab

-----------------------------------------------------------------------------
ONE SUNDAY MORNING (SONG FOR JANE SMILEYS BOYFRIEND) - Wilco
-----------------------------------------------------------------------------
Tabbed by: Kevin
Email: ksjones303@yahoo.com

Tuning: Standard

Intro: Listen to song for rhythm

X2

e|---------------------------------------------------------------------------|
B|---------------------------------------------------------------------------|
G|------2-------------2-----------2-----------2---------1---1h2--1-----------|
D|--------------2-----------2-----------2-----------4---2---2----2--2--------|
A|-----------------4-----------4-----------4--------2-------------------2----|
E|-0---------0----------0-----------0-----------0--------------------------0-|

e|---------------------------------------------------------------------------|
B|---------------------------------------------------------------------------|
G|---------------------------------------------------------------------------|
D|------4-------------4-----------4-----------4-----4--4--6--6/7\6--6--4--6--|
A|--------------5-----------5-----------5-----------5--5--5--5------5--5--5--|
E|-5---------5-----5-----5-----5-----5-----5-----5---------------------------|


After 2nd Time, end on A/E, then E to begin verse

Verse: (play intro riff at the end of each verse.)

E             D

This is how I tell it

   A	    E

Oh, but it's long

	   D

One Sunday morning

   A          E

Oh, one son is gone



I can see where they're dawning
Over the sea
My father said what I had become
No-one should be

Outside I look lived in
Like the bones in a shrine
How am I forgiven?
Oh, I'll give it time

This, I learned without warning
Holding my brow
In time he thought I would kill him
Oh, but I didn't know how

I said it's your god I don't believe in
No, your Bible can't be true
Knocked down by the long life
He cried, 'I fear what waits for you'

I can hear those bells
Spoken and gone
I feel relief, I feel well
Now he knows he was wrong

I am cold for my father
Frozen underground
Jesus, I wouldn't bother
He belongs to me now

Something sad keeps moving
So I wandered around
I fell in love with the burden
Holding me down

Bless my mind, I miss
Being told how to live
What I learned without knowing
How much more that I owe that I can give

This is how I tell it
Oh, but it's long
One Sunday morning
One son is gone



************************************

| /   slide up
| \   slide down
| h   hammer-on
| p   pull-off
| ~   vibrato
| +   harmonic
| x   Mute note
| b   Bend
| pb  Pre-bend
| br  Bend release
| pbr Pre-bend release
| brb Bend release bend

************************************

Tap to rate this tab
# A B C D E F G H I J K L M N O P Q R S T U V W X Y Z