Song name
# A B C D E F G H I J K L M N O P Q R S T U V W X Y Z

Wilco - One Sunday Morning tab

			  One Sunday Morning (Song for Jane Smiley's Boyfriend) - Wilco
-------------------------------------------------------------------------------
Tabbed by:Jim		
Email: jim.guarini@yahoo.com

Tuning: Tune Guitar down one whole step: D G C F A D

e|---------------------------|------------------------|-------------------------|
B|------1------1------1------|------------------------|-------------------------|
G|---------0--------------0--|---0--2--4--4h5-4--0---0|----2------2-----2------2|
D|--2---2----0--------2------|---0--0--0--0---0----0--|-3--3--3---------3--3----|
A|--3-------------3----------|------------------------|-3-------3----3-------3--|
E|--3------------------------|------------------------|-------------------------|
	
e|---------------------------------------------------------------------------|
B|------------0---0h1--0-----------------------------------------------------|
G|----2p0-2----------------2--0----------------------------------------------|
D|-3----------3---3----3-----------------------------------------------------|
A|-3-------------------------------------------------------------------------|
E|---------------------------------------------------------------------------|

That's pretty much it.  Verse chords are C/G, G, F/C

Enjoy!
Tap to rate this tab
# A B C D E F G H I J K L M N O P Q R S T U V W X Y Z