Song name
# A B C D E F G H I J K L M N O P Q R S T U V W X Y Z

Wilco - One Sunday Morning tab

                          Intro One Sunday Morning                             

tabbed by Oriol Vilella
                                                                           Wilco
Pista 1



     C                                                           
     E  E  S S S S E  E  S S S S    E  E  E    E  E  E  E    E   
D||------------------------------|------------------------------|
A||-----1--------1----1--------1-|------------------------------|
F||-----0----0--------0----0-----|--0--2--4--4g5--4--0----------|
C||--2---------2---2---------2---|----------------------0--2g3--|
G||------------------------------|--2--3--5----5--5--5----------|
D||--3-----3-------3-----3-------|------------------------------|


  F                                                                  
  E  E  S S S S E  E  S S S S    E  E  E  E    E  E  E  E            
------------------------------|-----------------------------||-----||
------------------------------|-----------0--0g1--0---------||-----||
-----2--------2----2--------2-|--0--2--2-------------2--0--*||-----||
-----3----3--------3----3-----|--3--3--3--3----3--3--3-----*||-----||
--3---------3---3---------3---|-------------------------2---||-----||
--1-----1-------1-----1-------|--1--------------------------||-----||




Duration Legend
---------------
W - whole
H - half
Q - quarter
E - 8th
S - 16th
T - 32nd
X - 64th
. - note dotted
|-n-|  - n-tuplets


Tablature Legend
----------------
L - tied note
x - dead note
g - grace note
(n) - ghost note
> - accentuded note
NH - natural harmonic
AH - artificial harmonic
TH - tapped harmonic
SH - semi harmonic
PH - pitch harmonic
h - hammer on
p - pull off
b - bend
br - bendRelease
pb - preBend
pbr - preBendRelease
brb - bendReleaseBend
\n/ - tremolo bar dip
\n - tremolo bar dive
-/n - tremolo bar Release up
/n\ - tremolo bar inverted dip
Tap to rate this tab
# A B C D E F G H I J K L M N O P Q R S T U V W X Y Z