Song name
# A B C D E F G H I J K L M N O P Q R S T U V W X Y Z

Wilco - Kidsmokespiders tab

I've seen a few tabs for the chorus to Kidsmoke but they didn't seem correct to me.
I've never written tab before so please be kind but this is how I play the song and it 
seems to fit well when playing along.


-----------------------------------------------------------------------------
                             Kidsmoke (Spiders) - Wilco
-----------------------------------------------------------------------------
Tabbed by: matyjo

Tuning: Standard

e|----------|-------------|-----------|------------|
B|----------|-------------|-----------|------------|
G|-9--9--99-|-9--9--9--99-|-7--7--6/7-|-7--7--64---|
D|-9--9--99-|-9--9--9--99-|-7--7--6/7-|-7--7----74-|
A|-7--7--77-|-7--7--7--77-|-5--5--4/5-|-5--5-------|
E|----------|-------------|-----------|------------|


e|----------|--------|------|----------|
B|----------|--------|------|------2---|
G|-6--6--4--|-4------|-4----|---1/2--4-|
D|-6--6---7-|--76-6--|-4----|-24-----4-|
A|-4--4-----|----4-4-|-2----|----------|
E|----------|--------|------|----------|
Tap to rate this tab
# A B C D E F G H I J K L M N O P Q R S T U V W X Y Z