Song name
# A B C D E F G H I J K L M N O P Q R S T U V W X Y Z

Wilco - Walken Acoustic tab

-------------------------------------------------------------------------------
                         WALKEN ACOUSTIC - Wilco
-------------------------------------------------------------------------------
Tabbed by: jvwald

This is based on the Live at the Winnipeg Folk Festival video on YouTube

Tuning: Open G (DGDGBD)

G7 503000
G6 502000
GaddD# 501000
G 505000
G/A 707000
G/B 909000
G/D# 1010xx

d|-2-0---------------------------------2-0-------|
B|-2-0-0---0---0---0---0---0---0---0---2-0-0---0-|
G|-3-0---0-----0---0---0---0---0---0---3-0---0---|
D|-----------------------------------------------|
G|-----------0---0---0---0---0---0---0-----------|
D|-----------------------------------------------|

      I'm walking              All by myself
d|-----------2-0---------------------------------|
B|---0---0---2-0-0---0---5---5---5---5-----------|
G|---0---0---3-0---0-----5---5---5---5-----------|
D|-----------------------------------------------|
G|-0---0---0-----------5---5---5---5-------------|
D|-----------------------------------------------|

d|-----------2-0---------------------------------|
B|---0---0---2-0-0---0---0---0---0---0-----------|
G|---0---0---3-0---0-----0---0---0---0-----------|
D|-----------------------------------------------|
G|-0---0---0-----------0---0---0---0-------------|
D|-----------------------------------------------|

    I was talking to myself about you
d|-----------------------------------------------|
B|---5---5---5---5---8---8---8---8---------------|
G|---5---5---5---5---8---8---8---8---------------|
D|-----------------------------------------------|
G|-5---5---5---5---8---8---8---8-----------------|
D|-----------------------------------------------|

d|-----------------------------------------------|
B|---3---3---4-4-3-----2---3-2-----1-1-----------|
G|---3---3---3-3-----2-----------1-1---1---------|
D|-----------------------------------------------|
G|-3---3---3---3---2-----2-----1---1-------------|
D|-----------------------------------------------|

      I was singing         This song about you
d|-----------2-0---------------------------------|
B|---0---0---2-0-0---0---5---5---5---5-----------|
G|---0---0---3-0---0-----5---5---5---5-----------|
D|-----------------------------------------------|
G|-0---0---0-----------5---5---5---5-------------|
D|-----------------------------------------------|

d|-----------2-0---------------------------------|
B|---0---0---2-0-0---0---0---0---0---0-----------|
G|---0---0---3-0---0-----0---0---0---0-----------|
D|-----------------------------------------------|
G|-0---0---0-----------0---0---0---0-------------|
D|-----------------------------------------------|

   I was thinking about singing this song for you
d|-----------------------------------------------|
B|---5---5---5---5---8---8---8---8---------------|
G|---5---5---5---5---8---8---8---8---------------|
D|-----------------------------------------------|
G|-5---5---5---5---8---8---8---8-----------------|
D|-----------------------------------------------|

d|-----------------------------------------------|
B|---3---3---4-4-3-----2---3-2-----1-1-----------|
G|---3---3---3-3-----2-----------1-1---1---------|
D|-----------------------------------------------|
G|-3---3---3---3---2-----2-----1---1-------------|
D|-----------------------------------------------|

   The more I think about it the more I know it's true
d|---------------------------------------------------|
B|---------------------------------------------------|
G|---------------------------------------------------|
D|-----2--------------------------1---------------0--|
G|-----0--------------------------0---------------4--|
D|-----2--------------------------1---------------5--|

d|------------------------------------|
B|------------------------------------|
G|-0-0-0-0-0-0--0-0-0-0-0-0-0-0-0-0-0-|
D|-0-0-0-2-0-0--0-0-0-0-0-0-0-2-0-0-0-|
G|-0-2-0-3-0-2--0-2-0-0-0-2-0-3-0-2-0-|
D|-0-3-0---0-3--0-3-0-0-0-3-0---0-3-0-|

The more I think about it the more I'm sure it's you
d|---------------------------------------------------|
B|---------------------------------------------------|
G|---------------------------------------------------|
D|-----2--------------------------1---------------0--|
G|-----0--------------------------0---------------4--|
D|-----2--------------------------1---------------5--|

d|---------------|
B|---------------|
G|---------------|
D|---------------|
G|---0---0---0---|
D|-5---5---5---5-|

   honey I think you're just right, you're just right
d|---------------------------------------------------|
B|---------------------------------------------------|
G|---------------------------------------------------|
D|-----2--------------------------1---------------0--|
G|-----0--------------------------0---------------4--|
D|-----2--------------------------1---------------5--|

d|-0-2-0-2-0-0-0-0-0-0-|
B|-0-0-0-0-0-0-0-0-0-0-|
G|-0-3-0-3-0-0-0-0-0-0-|
D|-0-0-0-0-0-0-0-0-0-0-|
G|-0-0-0-0-0-0-0-0-0-0-|
D|---------------------|

d|-0-2-0-2-0-0-0-0-0-0-0-|
B|-0-0-0-0-0-0-0-0-0-1-0-|
G|-0-3-0-3-0-0-0-0-0-0-0-|
D|-0-0-0-0-0-0-0-0-0-0-0-|
G|-0-0-0-0-0-0-0-0-0-1-0-|
D|-----------------------|

d|-0-2-0-2-0-0-0-0-0-0-|
B|-0-0-0-0-0-0-0-0-0-0-|
G|-0-3-0-3-0-0-0-0-0-0-|
D|-0-0-0-0-0-0-0-0-0-0-|
G|-0-0-0-0-0-0-0-0-0-0-|
D|---------------------|

d|-0-2-0-2-0-0-0-----------------------------------|
B|-0-0-0-0-0-0-0-----------------------------------|
G|-0-3-0-3-0-0-0-0-0-0-0-0-0-0-0-0-0-0-0-0-0-0-0-0-|
D|-0-0-0-0-0-0-0-0-0-2-0-0-0-0-0-0-0-0-0-0-2-0-0-0-|
G|-0-0-0-0-0-0-0-2-0-3-0-2-0-0-2-0-0-0-2-0-3-0-2-0-|
D|---------------3-0---0-3-0-0-3-0-0-0-3-0---0-3-0-|

d|-----------------------|
B|-----------------------|
G|-0-0-0-0-0-0-0-0-0-0-0-|  x2
D|-0-0-0-0-0-0-0-2-0-0-0-|
G|-0-2-0-0-0-2-0-3-0-2-0-|
D|-0-3-0-0-0-3-0---0-3-0-|

     I was walking like I said by myself
d|-----------2-0---------------------------------|
B|---0---0---2-0-0---0---5---5---5---5-----------|
G|---0---0---3-0---0-----5---5---5---5-----------|
D|-----------------------------------------------|
G|-0---0---0-----------5---5---5---5-------------|
D|-----------------------------------------------|

d|-----------2-0---------------------------------|
B|---0---0---2-0-0---0---0---0---0---0-----------|
G|---0---0---3-0---0-----0---0---0---0-----------|
D|-----------------------------------------------|
G|-0---0---0-----------0---0---0---0-------------|
D|-----------------------------------------------|

    I was talking to myself about you
d|-----------------------------------------------|
B|---5---5---5---5---8---8---8---8---------------|
G|---5---5---5---5---8---8---8---8---------------|
D|-----------------------------------------------|
G|-5---5---5---5---8---8---8---8-----------------|
D|-----------------------------------------------|

d|-----------------------------------------------|
B|---3---3---4-4-3-----2---3-2-----1-1-----------|
G|---3---3---3-3-----2-----------1-1---1---------|
D|-----------------------------------------------|
G|-3---3---3---3---2-----2-----1---1-------------|
D|-----------------------------------------------|

      I was singing         This song about you
d|-----------2-0---------------------------------|
B|---0---0---2-0-0---0---5---5---5---5-----------|
G|---0---0---3-0---0-----5---5---5---5-----------|
D|-----------------------------------------------|
G|-0---0---0-----------5---5---5---5-------------|
D|-----------------------------------------------|

d|-----------2-0---------------------------------|
B|---0---0---2-0-0---0---0---0---0---0-----------|
G|---0---0---3-0---0-----0---0---0---0-----------|
D|-----------------------------------------------|
G|-0---0---0-----------0---0---0---0-------------|
D|-----------------------------------------------|

   I started running to get back home
d|-----------------------------------------------|
B|---5---5---5---5---8---8---8---8---------------|
G|---5---5---5---5---8---8---8---8---------------|
D|-----------------------------------------------|
G|-5---5---5---5---8---8---8---8-----------------|
D|-----------------------------------------------|

   To be with you like I always do
d|-----------------------------------------------|
B|---3---3---4-4-3-----2---3-2-----1-1-----------|
G|---3---3---3-3-----2-----------1-1---1---------|
D|-----------------------------------------------|
G|-3---3---3---3---2-----2-----1---1-------------|
D|-----------------------------------------------|

   The more I think about it the more I know it's true
d|---------------------------------------------------|
B|---------------------------------------------------|
G|---------------------------------------------------|
D|-----2--------------------------1---------------0--|
G|-----0--------------------------0---------------4--|
D|-----2--------------------------1---------------5--|

d|------------------------------------|
B|------------------------------------|
G|-0-0-0-0-0-0--0-0-0-0-0-0-0-0-0-0-0-|
D|-0-0-0-2-0-0--0-0-0-0-0-0-0-2-0-0-0-|
G|-0-2-0-3-0-2--0-2-0-0-0-2-0-3-0-2-0-|
D|-0-3-0---0-3--0-3-0-0-0-3-0---0-3-0-|

The more I think about it the more I'm sure it's you
d|---------------------------------------------------|
B|---------------------------------------------------|
G|---------------------------------------------------|
D|-----2--------------------------1---------------0--|
G|-----0--------------------------0---------------4--|
D|-----2--------------------------1---------------5--|

d|---------------|
B|---------------|
G|---------------|
D|---------------|
G|---0---0---0---|
D|-5---5---5---5-|

   honey I think you're just right, you're just right
d|---------------------------------------------------|
B|---------------------------------------------------|
G|---------------------------------------------------|
D|-----2--------------------------1---------------0--|
G|-----0--------------------------0---------------4--|
D|-----2--------------------------1---------------5--|

d|---------0h3-0-3-5-3p0-------------0h3-0-3-12-11-10----|
B|-----0h3-----------------------0h3------------------12-|
G|-0h3-------------------3---0h3-------------------------|  x2
D|-------------------------------------------------------|
G|-------------------------------------------------------|
D|-------------------------------------------------------|

d|-0-0-0-0-0-3-0---5-3-0-----0-0-0-0-0-3-0---0-0--|
B|-0-0-0-3-0-0-0---0-0-0-----0-0-0-3-0-0-0---5-12-|
G|-0-3-0-0-0-3-0---5-3-0-----0-3-0-0-0-3-0---0-0--| x2
D|-0-0-0-3-0-0-0---0-0-0-----0-0-0-3-0-0-0---5-12-|
G|-0-3-0-0-0-0-0-------------0-3-0-0-0-0-0---0-0--|
D|------------------------------------------------|

   The more I think about it the more I know it's true
d|---------------------------------------------------|
B|---------------------------------------------------|
G|---------------------------------------------------|
D|-----2--------------------------1---------------0--|
G|-----0--------------------------0---------------4--|
D|-----2--------------------------1---------------5--|

d|------------------------------------|
B|------------------------------------|
G|-0-0-0-0-0-0--0-0-0-0-0-0-0-0-0-0-0-|
D|-0-0-0-2-0-0--0-0-0-0-0-0-0-2-0-0-0-|
G|-0-2-0-3-0-2--0-2-0-0-0-2-0-3-0-2-0-|
D|-0-3-0---0-3--0-3-0-0-0-3-0---0-3-0-|

The more I think about it the more I'm sure it's you
d|---------------------------------------------------|
B|---------------------------------------------------|
G|---------------------------------------------------|
D|-----2--------------------------1---------------0--|
G|-----0--------------------------0---------------4--|
D|-----2--------------------------1---------------5--|

d|---------------|
B|---------------|
G|---------------|
D|---------------|
G|---0---0---0---|
D|-5---5---5---5-|

   honey I think you're just right, you're just right
d|---------------------------------------------------|
B|---------------------------------------------------|
G|---------------------------------------------------|
D|-----2--------------------------1---------------0--|
G|-----0--------------------------0---------------4--|
D|-----2--------------------------1---------------5--|

d|-------------------------------------------------------|
B|-------------------------------------------------------|
G|-----2p0-2p0---------2p0-2-3-4-------------------------| x2
D|-2p0---------2p0-1p0-----------------------------------|
G|-----------------------------------0---0---0---0---0---|
D|---------------------------------5---5---5---5---5---5-|

d|-----------------------|
B|-----------------------|
G|-----------------------| x2
D|-----------------------|
G|---0---0---0---0---0---|
D|-5---5---5---5---5---5-|

d|-----------------------------------------------------------------------------------------|
B|-----------------------------------------------------------------------------------------|
G|-----------------------------------------------------------------------------------------|  x2
D|---3---3---3---3---3-----2---2---2---2---2-----1---1---1---1---1-----0---0---0---0---0---|
G|-----------------------------------------------------------------------------------------|
D|-5---5---5---5---5---5-5---5---5---5---5---5-5---5---5---5---5---5-5---5---5---5---5---5-|

outro
G7   G6   GaddD#   G   G/A   G/B  X2

G7   G6   GaddD#   G

G/D#


************************************

| /   slide up
| \   slide down
| h   hammer-on
| p   pull-off
| ~   vibrato
| +   harmonic
| x   Mute note
| b   Bend
| pb  Pre-bend
| br  Bend release
| pbr Pre-bend release
| brb Bend release bend

************************************
Tap to rate this tab
# A B C D E F G H I J K L M N O P Q R S T U V W X Y Z