Song name
# A B C D E F G H I J K L M N O P Q R S T U V W X Y Z

Wilco - Theologians tab

-------------------------------------------------------------------------------
                    THEOLOGIANS ACOUSTIC - Wilco
-------------------------------------------------------------------------------
Tabbed by: jvwald

Tuning: Drop D

Dm x00231
Dm7 x00211
Dm6 x00201

main riff
e|------------------------------------------------------|
B|------------------------------------------------------|
G|------------------------------------------------------|
D|-8-8-8---8-8-8---7-10-10-7--0/5-x-5-5--10-10-10-10-10-|
A|-8-8-10--8-8-10--7-7--7--7--0/5-x-8-5--10-10-12-10-12-|
D|-8-8-8---8-8-8---7-7--7--7--0/5-x-5-5--10-10-10-10-10-|

main riff (over lyrics) x2
Theologians / They don't know nothing / About my soul / About my soul 

main riff (over lyrics) x2
I'm an ocean / An abyss in motion / Slow motion / Slow motion

riff 1
e|--------------------------------|
B|--------------------------------|
G|--------------------------------|
D|-3-3-3-3-3-3-3-3-3-3-3-3-/5-x-5-|
A|-3-3-5-3-3-5-3-3-5-3-3-5-/5-x-8-|
D|-3-3-3-3-3-3-4-4-4-4-4-4-/5-x-5-|

riff 2
e|-----------------|
B|-----------------|
G|-----------------|
D|-/10-10-10/12-12-|
A|-/10-10-10/12-12-|
D|-/10-10-10/12-12-|

riff 3
e|-------------|
B|-------------|
G|-------------|
D|-10-10-11-12-|
A|-10-10-11-12-|
D|-10-10-11-12-|

riff 1 (over lyrics)                          riff 2
Inlitterati lumen fidei / God is with us everyday

riff 1 (over lyrics)                          riff 3
That illiterate light / Is with us every night 

main riff (over lyrics)
Theologians / That don't know nothing / About my soul / Oh they don't know

riff 1 (over lyrics)                                      riff 2
They thin my heart with little things / And my life with change
riff 1 (over lyrics)                         riff 3
Oh in so many ways / I find more missing every day 

riff 4
e|---------------|
B|---------------|
G|-------2-0---0-|
D|---3-------3---|
A|-1---1---------|
D|---------------|

Dm    Dm7    Dm6   riff 4
Theologians
Dm         Dm7                 Dm6          riff 4
I'm going away /Where you will look for me 
Dm         Dm7             Dm6    riff 4
Where I'm going you cannot come 
Dm       Dm7                Dm6         riff 4
No one's ever gonna take my life from me
Dm       Dm7              Dm6             riff 4 
I lay it down, a ghost is born, a ghost is born

main riff (over lyrics) x2
I'm an ocean / I'm all emotion / I'm a cherry ghost / Cherry ghost 
main riff (over lyrics) x2
Hey I'm a cherry ghost / A cherry ghost

intro x1


************************************

| /   slide up
| \   slide down
| h   hammer-on
| p   pull-off
| ~   vibrato
| +   harmonic
| x   Mute note
| b   Bend
| pb  Pre-bend
| br  Bend release
| pbr Pre-bend release
| brb Bend release bend

************************************
Tap to rate this tab
# A B C D E F G H I J K L M N O P Q R S T U V W X Y Z