Song name
# A B C D E F G H I J K L M N O P Q R S T U V W X Y Z

Wilco - Cant Stand It chords

Highlighted       Show chord diagrams
-------------------------------------------------------------------------------
                         CAN'T STAND IT - Wilco
-------------------------------------------------------------------------------
Tabbed by: jvwald

Tuning: DADADe (the 4th and 5th strings get pretty tight)

G5 555xxx
F#5 444xxx
E5 222xxx
F5 333xxx

intro
e|-------------5-5-5-5-5-5-5-5-7-7-7-7-7-7----|
D|-------------5-5-5-5-5-5-5-5-7-7-7-7-7-7----|
A|-5/7/9-4-2-0-5-5-5-7-5-5-5-7-7-7-7-7-7-7----|
D|-0-0-0-0-0-0-5-5-5-5-5-5-5-5-7-7-7-7-7-7----|
A|-5/7/9-4-2-0-5-5-5-5-5-5-5-5-7-7-7-7-7-7----|
D|-0-0-0-0-0-0-5-5-5-5-5-5-5-5-7-7-7-7-7-7-7\-|

riff 1
e|-----------|
D|-----------|
A|-----------| x4
D|--0-0-/5-5-|
A|--0-0-/5-5-|
D|-\0-0-/5-5-|

riff 1 (over lyrics)
The way things go
You get so low
Struggle to find your skin
Hey ho
Look out below
Your prayers will never be answered again

riff 2
e|---------------------|
D|---------------------|
A|---------------------| x4
D|-10h11h12-12-7p6p5-5-|
A|-10h11h12-12-7p6p5-5-|
D|-10h11h12-12-7p6p5-5-|

riff 1 (over lyrics)
Phones still ring
And singers sing
Speakers are speaking in code
What now
Well anyhow
Our prayers will never be answered again

chorus
G5   F#5   E5

   You know it's all beginning to feel like It's ending
e|---------5-5-5-5-----------5-5-5-5-|
D|---------5-5-5-5-----------5-5-5-5-|
A|-5/7/9-4-5-5-5-5-4/5/7-2-0-5-5-5-5-|
D|-0-0-0-0-5-5-5-5-0-0-0-0-0-5-5-5-5-|
A|-5/7/9-4-5-5-5-5-4/5/7-2-0-5-5-5-5-|
D|-0-0-0-0-5-5-5-5-0-0-0-0-0-5-5-5-5-|

No loves as random as God's love I can't stand it I can't stand it
e|-------------5-5-5-5-5-5-5-5-7-7-7-7-7-7----|
D|-------------5-5-5-5-5-5-5-5-7-7-7-7-7-7----|
A|-5/7/9-4-2-0-5-5-5-7-5-5-5-7-7-7-7-7-7-7----|
D|-0-0-0-0-0-0-5-5-5-5-5-5-5-5-7-7-7-7-7-7----|
A|-5/7/9-4-2-0-5-5-5-5-5-5-5-5-7-7-7-7-7-7----|
D|-0-0-0-0-0-0-5-5-5-5-5-5-5-5-7-7-7-7-7-7-7\-|

riff 1 x4

riff 1 (over lyrics)
The way things get
You get so high
Funny how we make new friends
Oh hey ho
I gotta go
My prayers will never be answered again

chorus

riff 1 x4

F5                G5
Speakers speaking speakers speaking
F5                G5
Speaking in code

F5                G5
Speakers speaking speakers speaking
F5                G5
Speaking in code

chorus

riff 1 (over lyrics)
Your prayers will never be answered again
Your prayers will never be answered again
Your prayers will never be answered again
Your prayers will never be answered again

************************************

| /   slide up
| \   slide down
| h   hammer-on
| p   pull-off
| ~   vibrato
| +   harmonic
| x   Mute note
| b   Bend
| pb  Pre-bend
| br  Bend release
| pbr Pre-bend release
| brb Bend release bend

************************************
Tap to rate this tab
 
# A B C D E F G H I J K L M N O P Q R S T U V W X Y Z