Song name
# A B C D E F G H I J K L M N O P Q R S T U V W X Y Z

Wilco - Red Eyed And Blue chords

Highlighted       Show chord diagrams
-------------------------------------------------------------------------------
                       RED-EYED AND BLUE - Wilco
-------------------------------------------------------------------------------
Tabbed by: jvwald

Tuning: standard

A x02220
AaddF x03220
A6 x04220
A7 x05220
D x00232
Dm x00231
Am/D xx0210
Asus4add2/D xx0200
A7/G 302220
[ch]A6/F#[/ch] 202220
A/F 102220
Bm x24432
F#m 244222
G 355433
AII 577655B

Intro
A   AaddF   A6   AaddF x2

A                        AaddF
We've got solid state technology
A6             AaddF
Tapes on the floor
A                      AaddF   A6   A7
Some songs we can't afford to play
          D              Dm
When we came here today
    Am/D        Asus4add2/D         A  AaddF   A   AaddF
All I wanted to say was how much I miss you
A    A7/G    [ch]A6/F#[/ch]   A/F
Alcohol and cotton balls
         A              AaddF         A6   A7
And some drugs we can't afford on the way
         D               Dm
When we came here today
       Am/D        Asus4add2/D
We all felt something true
    A   Bm              D
Now I'm red-eyed and blue

e|-------------------------0-0-0-0-0-|
B|-------------------------0-0-0-2-3-|
G|-2-2-2-----2-2-2---------1-1-1-1-1-|
D|-2-2-2-----2-2-2---------2-2-2-2-2-|
A|-0-0-0-----0-0-0---------2-2-2-2-2-|
E|-------0h2-------0-2-1-0-0-0-0-0-0-|

Whistling solo
A   D   Bm x2
A   D   F#m
A   E   G   AII

************************************

| /   slide up
| \   slide down
| h   hammer-on
| p   pull-off
| ~   vibrato
| +   harmonic
| x   Mute note
| b   Bend
| pb  Pre-bend
| br  Bend release
| pbr Pre-bend release
| brb Bend release bend

************************************
Tap to rate this tab
 
# A B C D E F G H I J K L M N O P Q R S T U V W X Y Z