Song name
# A B C D E F G H I J K L M N O P Q R S T U V W X Y Z

Wilco - Rising Red Lung tab

-------------------------------------------------------------------------------
                            RISING RED LUNG - Wilco
-------------------------------------------------------------------------------
Tabbed by: jvwald

Tab based on this video from YouTube:
http://www.youtube.com/watch?v=Qa68lrqwjmY

Tuning: Open C (CGCFAd)

(verse)
    Solar rising red lung
d|------------------------------------------|
A|------------------------------------------|
F|----9-----9---9-----9---7-----7---7-----7-|
C|------0---------0---------9---------9-----|
G|----9---9-----9---9-----9---9-----9---9---|
C|--0---------0---------0---------0---------|

    Glisten under the sun
d|--------------------------------------------|
A|--------------------------------------------|
F|----9-----9---9-----9---7------7---7------7-|
C|------0---------0---------10---------10-----|
G|----9---9-----9---9-----7----7-----7----7---|
C|--0---------0---------7----------7----------|

   I wonder when it'll part
d|--------------------------------------------|
A|--------------------------------------------|
F|----9-----9---9-----9---7------7---7------7-|
C|------0---------0---------10---------10-----|
G|----9---9-----9---9-----7----7-----7----7---|
C|--0---------0---------7----------7----------|

From the snow
d|----------------------|
A|----------------------|
F|----5-----5---5-----5-|
C|------9---------9-----|
G|----5---5-----5---5---|
C|--5---------5---------|

(verse - repeat last line once)
The melody's a mistake
Embrace at the wake
How long does it take
For us to know?

(verse - repeat last line once)
One whiff that's been blown
There's something unknown
Buried under the mound
Of snow

(verse repeat last line once)
Found a fix for the fits
Come listen to this
As intimate as a kiss
Over a phone

    And it goes
d|--------------------------|
A|--------------------------|
F|----2-----2-----2-----2---|
C|------5-----5-----5-----5-|
G|----2-----2-----2-----2---|
C|--2-----2-----2-----2-----|

d|--------------------------|
A|--------------------------|
F|----0-----0-----2-----2---|  x3
C|------7-----7-----5-----5-|
G|----5-----5-----2-----2---|
C|--0-----0-----2-----2-----|

d|----|
A|--0-|
F|--5-|
C|--9-|
G|--5-|
C|--5-|

(verse)
Found a fix for the fits
Come listen to this
It's buried under the hiss
And it glows

(verse repeat last line once)
Like a powerful smile
Car radio dial
As intimate as a kiss
Over a phone

And it goes
d|--------------------------|
A|--------------------------|
F|----2-----2-----2-----2---|
C|------5-----5-----5-----5-|
G|----2-----2-----2-----2---|
C|--2-----2-----2-----2-----|

d|--------------------------|
A|--------------------------|
F|----0-----0-----2-----2---|  x3
C|------7-----7-----5-----5-|
G|----5-----5-----2-----2---|
C|--0-----0-----2-----2-----|

d|---------------------------------------------------|   -
A|---------------------------------------------------|    | 
F|-------4-----4-----5-----5-----4-----4-----2-----2-|    |
C|-----5---5-------7---7-------5---5-------4---4-----|    |
G|---------------------------------------------------|    | x2
C|---5-------5---7-------7---5-------5---4-------4---|    |
                                                          |
d|---------------------------------------------------|    |
A|---------------------------------------------------|    |
F|-------0-----0-----0-----0-----7-----7-----7-----7-|    |
C|-----2---2-------2---2-------9---9-------9---9-----|    |
G|---------------------------------------------------|    |
C|---2-------2---2-------2---9-------9---9-------9---|   -

d|----------------------|
A|----------------------|
F|----5-----5---5-----5-|
C|------9---------9-----|
G|----5---5-----5---5---|
C|--5---------5---------|

d|--------------------------|
A|--------------------------|
F|----0-----0-----2-----2---|  x2
C|------7-----7-----5-----5-|
G|----5-----5-----2-----2---|
C|--0-----0-----2-----2-----|

d|----|
A|--0-|
F|--5-|
C|--9-|
G|--5-|
C|--5-|


************************************

| /   slide up
| \   slide down
| h   hammer-on
| p   pull-off
| ~   vibrato
| +   harmonic
| x   Mute note
| b   Bend
| pb  Pre-bend
| br  Bend release
| pbr Pre-bend release
| brb Bend release bend

************************************
Tap to rate this tab
# A B C D E F G H I J K L M N O P Q R S T U V W X Y Z