Song name
# A B C D E F G H I J K L M N O P Q R S T U V W X Y Z

Wilco - Whats The World Got In Store tab

-------------------------------------------------------------------------------
                     WHAT'S THE WORLD GOT IN STORE - Wilco
-------------------------------------------------------------------------------
Tabbed by: jvwald

Tuning: open G (DGDGBD)
*This can also be played as it is on the record with a banjo
in standard banjo tuning (GDGBD)

Capo II (for both guitar and banjo)

Am xx2212
G 000000
Bm xx4434
E xx2102
D xx0234

    Close your eyes and go to sleep, baby
d|------0---------0-------0---0---------------0-0-----------0--------|
B|--------------------0h1---0-0h1---------0-------0-1-------------0--|
G|----0---0-----0---0-------------2-0-2/4---4-------2-2---2---2---0--|
D|--0-------0h2-----------------------------------------4-------4----|
G|-------------------------------------------------------------------|
E|-------------------------------------------------------------------|

    Take your head off your feet, honey
d|------0---------0-------0---0---------------0-0-----------0--------|
B|--------------------0h1---0-0h1---------0-------0-1-------------0--|
G|----0---0-----0---0-------------2-0-2/4---4-------2-2---2---2---0--|
D|--0-------0h2-----------------------------------------4-------4----|
G|-------------------------------------------------------------------|
E|-------------------------------------------------------------------|

   Cause you've been working hard and I know you're tired, you been tryin' hard not to
think I'm a liar
d|------0---------0-------0-------------0---------0---------0-----0-----0-----0-|
B|--------------------0h1---1-------------------------1p0-1---1-----1-----1-----|
G|----0---0-----0---0-------2-0---0---0---0-----0---0-----3-----3-----3-----3---|
D|--0-------0h2-----------------2---0-------0h2---------------------------------|
G|------------------------------------------------------------------------------|
E|------------------------------------------------------------------------------|

    What's the world got in store, what's the world got in store for you, what's the
world got in
d|------------0---0-----0-----------0---0-----0---0-----------0--|
B|--1/3-----3---1---0-----1/3-----3---1-----0-------1/3-----3----|
G|--2/4-4-------0---------2/4-4-------0-----0-------2/4-4--------|
D|--------5-----------0---------5---------0-----0---------5------|
G|---------------------------------------------------------------|
E|---------------------------------------------------------------|

    store for you now
d|----0-----0-----0-----0----|
B|--1-----0-----1-----0------|
G|--0-----0-----0-----0------|
D|------0-----0-----0-----0--|
G|---------------------------|
E|---------------------------|

d|------------7---7---7--------|
B|----7---7-----7---7---7------|
G|--7---------------------7----|
D|--7---7---7---------------9--|
G|-----------------------------|
E|-----------------------------|

   Come on baby somehow, I need you
d|------0---------0-------0---0---------------0-0-----------0--------|
B|--------------------0h1---0-0h1---------0-------0-1-------------0--|
G|----0---0-----0---0-------------2-0-2/4---4-------2-2---2---2---0--|
D|--0-------0h2-----------------------------------------4-------4----|
G|-------------------------------------------------------------------|
E|-------------------------------------------------------------------|

    Do I have to show you how, baby
d|------0---------0-------0---0---------------0-0-----------0--------|
B|--------------------0h1---0-0h1---------0-------0-1-------------0--|
G|----0---0-----0---0-------------2-0-2/4---4-------2-2---2---2---0--|
D|--0-------0h2-----------------------------------------4-------4----|
G|-------------------------------------------------------------------|
E|-------------------------------------------------------------------|

d|------0---------0-------0-------------0---------0---------0-----0-----0-----0-|
B|--------------------0h1---1-------------------------1p0-1---1-----1-----1-----|
G|----0---0-----0---0-------2-0---0---0---0-----0---0-----3-----3-----3-----3---|
D|--0-------0h2-----------------2---0-------0h2---------------------------------|
G|------------------------------------------------------------------------------|
E|------------------------------------------------------------------------------|

*The banjo isn't just playing chords here but its hard to pick out exactly
what is being played. I've included the chords here and you can do with that
what you choose. If anyone can hear the banjo and wants to tab it out, feel free.

Am                 G                Am        G
I'm not trying to knock you out, or was it about
Bm              E                Am                        D
I just now you need your rest I can't say what's best for you

d|------0---------0-------0---0---------------0-0-----------0--------|
B|--------------------0h1---0-0h1---------0-------0-1-------------0--|
G|----0---0-----0---0-------------2-0-2/4---4-------2-2---2---2---0--|
D|--0-------0h2-----------------------------------------4-------4----|
G|-------------------------------------------------------------------|
E|-------------------------------------------------------------------|

d|------0---------0-------0---0---------------0-0-----------0--------|
B|--------------------0h1---0-0h1---------0-------0-1-------------0--|
G|----0---0-----0---0-------------2-0-2/4---4-------2-2---2---2---0--|
D|--0-------0h2-----------------------------------------4-------4----|
G|-------------------------------------------------------------------|
E|-------------------------------------------------------------------|

   You've been working hard and I know you're tired, you been tryin' hard not to think
I'm a liar
d|------0---------0-------0-------------0---------0---------0-----0-----0-----0-|
B|--------------------0h1---1-------------------------1p0-1---1-----1-----1-----|
G|----0---0-----0---0-------2-0---0---0---0-----0---0-----3-----3-----3-----3---|
D|--0-------0h2-----------------2---0-------0h2---------------------------------|
G|------------------------------------------------------------------------------|
E|------------------------------------------------------------------------------|

What's the world got in store, what's the world got in store for you, what's the world
got in
d|------------0---0-----0-----------0---0-----0---0-----------0--|
B|--1/3-----3---1---0-----1/3-----3---1-----0-------1/3-----3----|
G|--2/4-4-------0---------2/4-4-------0-----0-------2/4-4--------|
D|--------5-----------0---------5---------0-----0---------5------|
G|---------------------------------------------------------------|
E|---------------------------------------------------------------|

    store for you now
d|----0-----0-----0-----0----|
B|--1-----0-----1-----0------|
G|--0-----0-----0-----0------|
D|------0-----0-----0-----0--|
G|---------------------------|
E|---------------------------|

What's the world got in store, what's the world got in store for you, what's the world
got in
d|------------0---0-----0-----------0---0-----0---0-----------0--|
B|--1/3-----3---1---0-----1/3-----3---1-----0-------1/3-----3----|
G|--2/4-4-------0---------2/4-4-------0-----0-------2/4-4--------|
D|--------5-----------0---------5---------0-----0---------5------|
G|---------------------------------------------------------------|
E|---------------------------------------------------------------|

    store for you now
d|----0-----0-----0-----0-----0-----0-----0-----0-----0-----0-----0-----0----|
B|--1-----0-----1-----0-----1-----0-----1-----0-----1-----0-----1-----0------|
G|--0-----0-----0-----0-----0-----0-----0-----0-----0-----0-----0-----0------|
D|------0-----0-----0-----0-----0-----0-----0-----0-----0-----0-----0-----0--|
G|---------------------------------------------------------------------------|
E|---------------------------------------------------------------------------|

d|---------------------|
B|--1-1-0-------1-1-0--|
G|--2-2-0-----0-2-2-0--|
D|--------0h2----------|
G|---------------------|
E|---------------------|

************************************

| /   slide up
| \   slide down
| h   hammer-on
| p   pull-off
| ~   vibrato
| +   harmonic
| x   Mute note
| b   Bend
| pb  Pre-bend
| br  Bend release
| pbr Pre-bend release
| brb Bend release bend

************************************
Tap to rate this tab
 
# A B C D E F G H I J K L M N O P Q R S T U V W X Y Z