Song name
# A B C D E F G H I J K L M N O P Q R S T U V W X Y Z

Wilco - Via Chicago tab

Help us improve GuitareTab! Take a short survey!
-------------------------------------------------------------------------------
			     VIA CHICAGO - Wilco
-------------------------------------------------------------------------------
Tabbed by: cdmoser
Email: cdmoser@gmail.com

Tuning: standard

Capo 2nd fret - a much easier way to play it.  This is how Tweedy plays live.
The whole song is C,F,G repeated.

   Cmaj7        C            G                      F
I dreamed about killing you again last night and it felt all right to me

Cmaj7    C              G                         F
Dying on the banks of Embarcadero skies I sat and watched you bleed

e|----0----0----3----1---------------------------------------------------|
B|----0----1----0----1---------------------------------------------------|
G|----0----0----0----2---------------------------------------------------|
D|----2----2----0----3---------------------------------------------------|
A|----3----3----2----3---------------------------------------------------|
E|---(3)--(3)---3----1---------------------------------------------------|
    Cmaj7  C    G    F

lead riff:
e|-----------------------------------------------------------------------|
B|---3/5--5-5-5-3---3-----------------------3/5--5-5-5-3---3-------------|
G|----------------5---4-5--2p0---------------------------5---4-5--2p0----|
D|-----------------------------3-----3-3/5----------------------------3--|
A|-----------------------------------------------------------------------|
E|-----------------------------------------------------------------------|

riff plays on keyboard and guitar throughout song


www.wilcoworld.net
Related for Via Chicago tab