Song name
# A B C D E F G H I J K L M N O P Q R S T U V W X Y Z

Wilco - Lonely One tab

Transcribed by Josh C.
Play along to the song if you have it.

e-----------------------------------------------------------------|
B-----------------------------------------------------------------|
G----5---4-------2------------------------------------------------|
D----2---2---2---2---5---5-----3---2-------5---2------------------|
A--3---3---3---3---3---3---3---3---3---3---3---3---3--------------|
E----------------------------1---1---1---1---1---1----------------|

This riff is repeated constantly until the end while the verses and chori are being 
The accompiant violinist plays;

G--5-4------------------------------------------------------------|
D------5-2-3-2-5-2------------------------------------------------|
A-----------------------------------------------------------------|
E-----------------------------------------------------------------|

I don't know the ending but email me it and I'll put it on there.
Tap to rate this tab
 
# A B C D E F G H I J K L M N O P Q R S T U V W X Y Z