Song name
# A B C D E F G H I J K L M N O P Q R S T U V W X Y Z

Wilco - Meanest Man tab

This is a song off Mermaid Ave Vol II by Billy Bragg and Wilco. Lyrics by Woody Guthrie.

Opening guitar


E-------------------------|
B-------------------------|
G----5--6--5--6-6---------|         X3
D--5----------------------|
A-------------------------|
E-------------------------|

E-------------------------|
B-------------------------|
G---10--7-------5--7-7----|
D----------7-7------------|
A-------------------------|
E-------------------------|

Verse: C - D

            F   F   D   A  C    D     D
I'll be the Meanest Man in this whole town!

Chorus:

F                       E                 D
If I hadn't heard those kids all laughing playing games

etc.
Tap to rate this tab
 
# A B C D E F G H I J K L M N O P Q R S T U V W X Y Z