Song name
# A B C D E F G H I J K L M N O P Q R S T U V W X Y Z

Wilco - Sunken Treasure Live tab

Jeff Tweedy - Sunken Treasure

DADGBE, Capo on 2

Fingerpicked

D-G Riff
|----------------------------------------------------------------------------------|
|----------3------------------3------------------3---------------------3-----------|
|-------------2----2-------------2------------------2---------------------0--------|
|-------0-----------------0----------0--------0----------0---------0---------0-0---|
|--------------------------------------------------------------0h2-----------------|
|---0-----------------0------------------0-----------------------------------------|

G/D   Em    A/D

|---| |---| |---|
|---| |-0-| |-2-|
|-0-| |-0-| |-2-|
|-0-| |-2-| |-2-|
|-2-| |-2-| |-0-|
|-0-| |-2-| |-0-|

___________________________________________________________________

There's rows and rows of houses with windows painted blue
With light from the TV running parallel to you
There is no sunken treasure rumored to be
Wrapped inside my ribs
In a sea black with ink 
(play the D chord until halfway through "sea," then switch to G for the rest of the line)

If I had a mountain I'd try to fold it over
If I had a boat
It'd probably roll over 
(extend D and G for "probably")

I'd leave it on the shore
I'd leave it for somebody
Surely there's somebody
Who needs it more than me
(extend D and G for "needs")

A G/D
I am so, I am so
D-G riff
Out of tune

Em A/D
I am so out of tune
D-G riff
With you

Insturmental section:
|-------------------------------------------------------------------------------------|
|----------0---0---0--------0---0---0-------------------------------------------------|
|-------------------------------------------------------------------------------------|
|-------x-----------------x---------------x-x-x-x-x-------x-x-x-x-x-------------------|
|-------x-----------------x---------------x-x-x-x-x-------x-x-x-x-x-------------------|
|--3-----------------3----------------3----------------3------------------------------|

|-------------------------------------------------------------------------------------|
|----------------------------------------------------------0--0--0--------------------|
|----------------------------------------------------------0--0--0--------------------|
|------x-x-x-x-x-------x-x-x-x-x---------x-x-x-x-x-------x-2--2--2--------------------|
|------x-x-x-x-x-------x-x-x-x-x---------x-x-x-x-x-------x----------------------------|
|--2---------------2-----------------2-----------------2------------------------------|

|-------------------------------------------------------------------------------------|
|----------1---1---1------------1---1---1----------1---1---1----------1---1---1-------|
|----------0---0---0------------0---0---0----------0---0---0----------0---0---0-------|
|------2---2---2---2--------2---2---2---2-------2--2---2---2-------2--2---2---2-------|
|--3--------------------3-------------------3-------------------3---------------------|
|-------------------------------------------------------------------------------------|

|-------------------------------------------------------------------------------------|
|---------0---0---0-----------0---0---0---------0---0---0----------0---0---0----------|
|---------0---0---0-----------0---0---0---------0---0---0----------0---0---0----------|
|------2--2---2---2--------2--2---2---2------2--2---2---2-------2--2---2---2----------|
|-------------------------------------------------------------------------------------|
|--2------------------2-------------------2-------------------2-----------------------|

|--------------------------------------------|
|---------1---1---1-----------1---1---1------|
|---------0---0---0-----------0---0---0------|
|------2--2---2---2--------2--2---2---2------|
|--3-------------------3---------------------|
|--------------------------------------------|

|---------------------------------------------------------------------------------------------|
|---------2---2---2-----------2---2---2-----------2---2---2------------2---2---2---2--3-------|
|---------2---2---2-----------2---2---2-----------2---2---2------------2---2---2---2--2-------|
|------2--2---2---2--------2--2---2---2--------2--2---2---2---------2--2---2---2---2--0-------|
|--0-------------------0--------------------0--------------------0----------------------------|
|---------------------------------------------------------------------------------------------|

D-G Riff

For all the trees will burn in autumn fires and then return
For all the fires we burn
All will return
(Extend the D for "all")

D

Music is my savior
I was maimed by rock and roll
I was maimed by rock and roll
I was tamed by rock and roll
I got my name from rock and roll
I was saved by rock and roll 
Tap to rate this tab
# A B C D E F G H I J K L M N O P Q R S T U V W X Y Z