Song name
# A B C D E F G H I J K L M N O P Q R S T U V W X Y Z

Wilco - A Shot In The Arm Acoustic tab

-------------------------------------------------------------------------------
		   A SHOT IN THE ARM (SOLO ACOUSTIC) - Wilco
-------------------------------------------------------------------------------
Tabbed by: Ben Aitken
Email: ben.j.aitken@gmail.com

Tuning: Drop D

Main riff (all the strumming isn't notated):
e|--2--2--2--2--2--2-----------------2--2--2--2------------------------------|
B|--3--3--3--3--3--3-----------------3--3--3--3------------------------------|
G|--2--2--2--2--2--2-----------------2--2--2--2------------------------------|
D|--0--0--0--0--0--0--0--0--0--0--0--0--0--0--0--0--0--0--0--0---------------|
A|--0--0--0--0--0--0--0--2--4--2--0--0--0--0--0--0--2--4--2--0---------------|
E|--0--0--0--0--0--0--0--0--0--0--0--0--0--0--0--0--0--0--0--0---------------|

Verse: Main riff G Gm Main riff
Chorus: D G D
 G     Gm
|-3-|  |-3-|
|-3-|  |-3-|
|-0-|  |-0-|
|-0-|  |-0-|
|-2-|  |-1-|
|---|  |---|

| /  slide up
| \  slide down
| h  hammer-on
| p  pull-off
| ~  vibrato
| +  harmonic
| x  Mute note
===============================================================================
Tap to rate this tab
# A B C D E F G H I J K L M N O P Q R S T U V W X Y Z