Guitaretab - guitar tabs
Song name
# A B C D E F G H I J K L M N O P Q R S T U V W X Y Z

Wilco - You Are My Face tab

Wilco
You Are My Face
Tabbed by Dan

Intro: D

  D
I remember my motherís sisterís husbandís brother

Em (5th string bar chord)
Working in the goldmine full-time filling in for sunshine

D
Filing into tight lines of ordinary beehives

Em
The door screams I hate you hate you hanging around my blue jeans

D
Why is there no breeze no currency of leaves

Em
No current through the water wire no feelings I can see

D
I trust no emotion. I believe in locomotion.

Em
But I've turned to rust as we've discussed


Though I must have let you down too many times

D
In the dirt and the dust

E--------------------------------------14-12---------------|
B-11-12-14--------11-12-13-------10-12-------12------------|
G----------12-----------------------------------11-12------|
D--------------------------14------------------------------|
A----------------------------------------------------------|
E----------------------------------------------------------|


A#m  -  Bm  (two hard down strokes - 6th String Bar Chords)

E-7------------------------------------------------------------7-7-|
B-7------------------------------------------------7h10--10-10-----|
G-7-----------------------7-7-------7-7-7-7---7h9------------------|
D-9----------------------------------------------------------------|
A-9----------------------------------------------------------------|
E-7--10-7-10-7-10--10----------------------------------------------|

[ Tab from: http://www.guitaretab.com/w/wilco/91341.html ]
E-14-14-14--14--14--14--14---14-14----14-----17b19-----------------------------|
B-15-15-15--15--15--15--15---14----14-----------------14-14-13-12----------11--|
G------------------------------------------------------------------------------|
D-------------------------------------------------------------------9-8-9------|
A------------------------------------------------------------------------------|
E------------------------------------------------------------------------------|

          Bm                                              D
I have no idea how this happens, all of my maps have been overthrown

Bm                                                 F#m
Happenstance has changed my plans so many times my heart has been outgrown

                Em                                      D
Now everybodyís feeling all alone, canít tell you who I am

                 D                                       A#m-Bm
When everybodyís feeling all alone, canít tell you who I am


E--------------------------------------14-12-----------|
B-11----14--------11-12-14-------10-12-------12--------|
G----11----12-----------------------------------11-12--|
D--------------------------13--------------------------|
A------------------------------------------------------|
E------------------------------------------------------|


E--------------------------------------14-12---------------|
B-11-12-14--------11-12-13-------10-12-------12-------10---|
G----------12-----------------------------------11h12------|
D--------------------------14------------------------------|
A----------------------------------------------------------|
E----------------------------------------------------------|


D
I am looking forward toward the shadows tracing bones

    Em
Our faces stitched and sewing, our houses hemmed into homes

D
Trying to be thankful, our stories fit into phones

        Em
And our voices lift so easily, a gift given accidentally

               D
When weíre not sure weíre not alone


Outro:

Em-D  x3

D
Related for You Are My Face tab