Song name
# A B C D E F G H I J K L M N O P Q R S T U V W X Y Z

Wilco - Kicking Television tab

Help us improve GuitareTab! Take a short survey!
Band: Wilco
Song: Kicking Television
Album: A Ghost is Born (Tour EP)
Tabber: oddmenout4@yahoo.com

Chords Used:

A5:  577xxx
C5:  x355xx
(A): 5xxxxx
D5:  x577xx

A5, C5 x4

Verse 1:
(A)
I'm serious
       A5, C5 x4
You'll see
(A)
I'm working on my abs
               A5, C5 x4 --> during noisy sections
I'm working on me            the C5 is like this: x35500


Chorus:
e--------------------------------------------------------------|
B--------------------------------------------------------------|
G--------------2--2-2-2-2-2-2-2--------------2--2-2-2-2-2-2-2--|
D--0-2-4-2-4-5----2-2-2-2-2-2-2--0-2-4-2-4-5----2-2-2-2-2-2-2--|
A-----------------0-0-0-0-0-0-0-----------------0-0-0-0-0-0-0--|
E--------------------------------------------------------------|
                  Oh, I'm kickin'            Yeah, I'm calm      

e----------------------------------------------|
B----------------------------------------------|
G--------------2--2-2-2-2-2-2-2-7-7-7-7-7-7-7--|
D--0-2-4-2-4-5----2-2-2-2-2-2-2-7-7-7-7-7-7-7--|
A-----------------0-0-0-0-0-0-0-5-5-5-5-5-5-5--|
E----------------------------------------------|
                 Oh, I'm kickin'     
                              
e-------------------------------|------------------|
B-------------------------------|------------------|
G--2-2-2-2-2-2-2-7-7-7-7-7-7-7--|--7--x-x-x-x-x-x--|
D--2-2-2-2-2-2-2-7-7-7-7-7-7-7--|--7--x-x-x-x-x-x--|
A--0-0-0-0-0-0-0-5-5-5-5-5-5-5--|--5--x-x-x-x-x-x--|
E-------------------------------|------------------|
  Television                  x2


A5, C5 x4

Verse 2:
(A)
Stop shopping, even
                A5, C5 x4
Stop buying things


Chorus x1


Noise BreaK:
   (D5)
e--13-13-13-13-13-13-13-13-13-13-13-13-13-13-13-13-13-13-13--|
B--x--x--x--x--x--x--x--x--x--x--x--x--x--x--x--x--x--x--x---|

   (C5)
e--7-7-7-7-7-7-7-7-7-7-7-7-7-7-7-7-7-7-7-7-7---|
B--x-x-x-x-x-x-x-x-x-x-x-x-x-x-x-x-x-x-x-x-x---|

Then more noise...that I don't want to think about

e-----------------|
B-----------------|
G--------------2--|  A5, C5 x4
D--0-2-4-2-4-5----|
A-----------------|
E-----------------|


Verse 3:
(A)
Um...Oh, I'm serious
        A5, C5 x4
You'll see


Chorus x1

A5, D5 x5


(Similar noise break)


That's it!  For suggestions, corrections, and requests, email me.
Related for Kicking Television tab