Song name
# A B C D E F G H I J K L M N O P Q R S T U V W X Y Z

Wilco - Sky Blue Sky Acoustic tab

Help us improve GuitareTab! Take a short survey!
Highlighted       Show chord diagrams
Cappo 5th Fret

I didn't add the rythm or the open parts of the chords on the intro, so you will have to figure that out. 

Use the chords I have added, not the ones the site defaults.

If you have any questions e-mail me at willmyster22@yahoo.com

Chords

  G      Am    G2    Gb     C    Bm   Em     D7   D#7

e[-3-   [-0-  [-0-  [-0-  [-0-  [-0-  [-0-  [-2-  [-2-
B[-3-   [-1-  [-1-  [-1-  [-1-  [-3-  [-0-  [-1-  [-1-
G[-0-   [-2-  [-0-  [-2-  [-0-  [-x-  [-0-  [-2-  [-2-
D[-0-   [-2-  [-2-  [-0-  [-2-  [-4-  [-2-  [-0-  [-1-
A[-2-   [-0-  [-x-  [-0-  [-3-  [-2-  [-2-  [-x-  [-x-
E[-3-   [-x-  [-3-  [-2-  [-x-  [-x-  [-0-  [-x-  [-x-



Intro


e]-3--x--x--x--x--x--x--x--x--0--0--0--0--x--0--0--0--3--
B]-3--x--x--x--x--x--x--x--x--1--1--1--1--3--0--1--1--3--
G]-0--x--x--x--x--x--0--x--x--2--0--2--0--x--0--2--0--0--
D]-0--x--x--x--4--4--x--4--2--2--2--0--2--4--2--2--2--0--
A]-2--0--2--2--x--x--x--x--x--0--0--0--3--2--2--0--3--2--
E]-3--x--x--x--x--x--x--x--x--x--3--2--x--x--0--x--x--3--
   G  Em                      Am G2 Gb C  Bm Em Am C  G

Verse

  G                        Em
Oh, the band marched on in formation

  Am            G2       Gb
The brass was phasing tunes I couldn't place

  C               Bm     Em
Windows open and raining in

  Am              C             G
Maroon, yellow, blue, gold and gray


2nd Verse

The drunks were ricocheting
The old buildings downtown
Empty so long ago
Windows broken and dreaming
So happy to leave what was my home


Chorus

  D7
With a sky blue sky

 D#7
This rotten time

          Em               Am
Wouldn't seem so bad to me now

  D7
Oh, I didn't die

D#7
I should be satisfied

     Em
I survived 

                       Am
That's good enough for now



Solo (Intro Chords Again) You will need a 2nd guitar  

e[-------------------------------------------------------------]
B[-------------------------------------------------------------]
G[------------------------0-2-4-4-5--4-2-0---------------------]
D[----------4--4-5--4-2-4------------------2-4-2-4-0-----0-----]
A[-0-2--0-2------------------------------------------0-2---2-0-]
E[-------------------------------------------------------------]


[----------------------------------]
[-----0-------0-------0------------]
[-------0-2-----0-2-----0----------]
[-0-2-------2-------2-----4-5--4-2-]   
[----------------------------------]


[------------------------------------------------]
[------------------------------------------------]
[----------------------------------------------0-]
[----------------------------------------- 0-2---]
[---0-0-2-0------ 0-0-2-0---0-2-0------0-7-------]
[-3---------3---3---------3--------3--3----------]


Chorus

Intro




Related for Sky Blue Sky Acoustic tab