Song name
# A B C D E F G H I J K L M N O P Q R S T U V W X Y Z

Wilco - Was I In Your Dreams Live tab

-------------------------------------------------------------------------------
	           (Was I)In Your Dreams (Live) - Wilco
-------------------------------------------------------------------------------
Tabbed by: SG67

If you don't know this is the live version from Jeff Tweedy's solo DVD Sunken Treasure, 
don't get mad that it's a little different from the CD since it's only on one guitar. 
chord pattern and mostly same riffs, just slight differences.

Intro:
    C            E          Am            D         C           G - "Was I..."
e|--------------|----------|-------------|---------|-----------|--------------|
B|--1-----1-----|-------0--|--1------1---|-------3-|-------1---|--------------|
G|--0-------0---|-0h1---1--|--2--0h2-----|-----2-2-|---------0-|--------------|
D|--2-1h2-----2-|-2--------|-------------|---0-----|-2-1h2-----|-0------------|
A|--3-----------|-2--------|-----------0-|---------|-3---------|-2------------|
E|--------------|----------|-------------|-2-------|-----------|-3------------|

Here's the chords for the first part of the first verse:

G                     D
Was I in your dreams? I'd like to know.
C                             E
Did I touch your hand and did it feel like snow?
Am                           D
Try to understand while I've got you on the phone.

Then an interlude:
   C                    G
e|------8----7--5-----|-----------|
B|--------------------|-----------|
G|--8/9---------5-----|-----------|
D|----------------4---|-0---------|
A|-7----------------0-|-2---------|
E|-8-------6/7--------|-3---------|

G                     D
Did I hurt you like I know I can?
C                                       E
Tell me why you'd ever wanna leave your loving man.
Am                        D
Try to understand, please try to understand.

Pre-Chorus:
   C            G          NC
e|------------|-3----|-3---5---6/7-7-|
B|-1------1---|-3----|---0---0-------|
G|-0--------0-|-0----|---------------|
D|-2--1h2-----|-0----|---------------|
A|-3----------|-2----|---------------|
E|------------|-3----|-3---5---6/7-7-|
   C
e|-----|-------------|--------|-3---5---6/7-7-|
B|-1---|------1------|--------|---0---0-------|
G|-0---|--------0----|-0------|---------------|
D|-2---|-1h2----2----|-0------|---------------|
A|-3---|-------------|-2------|---------------|
E|-----|-------------|-3------|-3---5---6/7-7-|
         Was I in your dreams?
e|-----|---------------|--------|
B|-1---|-----1---------|--------|
G|-0---|---------------|--------|
D|-2---|-1h2---2-------|--------|
A|-3---|---------------|--------|
E|-----|---------------|-3------|
         Was I in your dreams?

Another interlude:
   G         D          C           E
e|---------|-----------|-----------|-------|
B|-------3-|-----------|-----------|-------|
G|-3h4-4-4-|-3/4---2-0-|-------0---|-1-1-1-|
D|-5---5---|-----------|-1h2-----2-|-2-2-2-|
A|---------|-----------|-----3-----|-2-2-2-|
E|---------|-----2-----|-----------|-0-0-0-|

e|-----------|---------|-----------|-----|
B|-1-----1---|-------3-|-1-----1---|-----|
G|-0-------0-|-------2-|-0-------0-|-0---|
D|-2-1h2-----|-----0---|-2-1h2-----|-0---|
A|-3---------|---------|-3---------|-2---|
E|-----------|-1/2-----|-----------|-3---|

Repeat for second verse, but skip last interlude and go to outro.

Outro chords:
G B7 Em F C B7 Em C G


| /  slide up
| \  slide down
| h  hammer-on
| p  pull-off
| ~  vibrato
| +  harmonic
| x  Mute note
===============================================================================
Tap to rate this tab
# A B C D E F G H I J K L M N O P Q R S T U V W X Y Z