Song name
# A B C D E F G H I J K L M N O P Q R S T U V W X Y Z

Wilcox David - Please Dont Call tab

Date: Thu, 27 Jul 1995 10:18:51 -0600 (MDT)
From: Brian Handy 
Subject: TAB:  Please Don't Call, David Wilcox

				Please Don't Call


				By David Wilcox
		
			Transcribed by Bill Boroson



Hey all,

Here's that intro to "Please Don't Call" that someone asked for.  The x's rep-
resent the slapping of the strings by the backs of the fingernails (that's how
I do it at least).  Enjoy.

Bill


6 = C   3 = F
5 = G   2 = C
3 = Eb  1 = D

|---------------------------------------------------------------|
|-x------0--x--0----x--0-----x--3----x-------x-------x-------x--|
|-x--5---2--x--2----x--2-----x--5----x-------x-------x-------x--|
|-x--2------x-------x--------x-------x--5----x--5----x--7----x--|
|-x---------x-------x--------x-------x--8----x--7----x--7----x--|
|------0---------00------00-------00------55------55------55----|


|-------------------0---------0-------0------s----/5------------|
|------x-----h---x--5------x--5----x--5-----5/7---\7----s-------|
|------x--0-5/6--x---------x-------x--------0-----/7---7\0------|
|-5----x---------x---------x-------x----------------------------|
|-7----x----0----x-----00--x----00-x----00--0-------------------|
|---55------------------------------------------0---------------|


|---------------p---|
|--------h-h---2\0--|
|-------0/2/5-------|
|--h--0-------------|
|-0/3---------------|
|-------------------|
Tap to rate this tab
# A B C D E F G H I J K L M N O P Q R S T U V W X Y Z