Wild Beasts - We Still Got The Taste Dancin On Our Tongues tab

Guitar 1 - Benny 

Verse - Palm muted, i think i've got this right
e|-----------------------------------------------------------------|
B|-----------------------------------------------------------------|
G|6-6-6-6-6-6-6-6-6-6-6-6-6-6-6-6-10101010101010101010101010101010-|
D|8-8-8-8-8-8-8-8-8-8-8-8-8-8-8-8-6-6-6-6-6-6-6-6-6-6-6-6-6-6-6-6--|
A|-----------------------------------------------------------------|
E|-----------------------------------------------------------------|

Chorus/Break - Tremolo
e|----------18~~~~~~~~-----------------------|
B|18~~~~~~~~----------18~~~~~~~~21~~~--------|
G|-----------------------------------18~~~~~-|
D|-------------------------------------------|
A|-------------------------------------------|
E|-------------------------------------------|

Post Chorus - Also Palm muted
e|------------------------------------------------|
B|14-14-14-14-14-14-14-14-------------------------|
G|15-15-15-15-15-15-15-15-13-13-13-13-13-13-13-13-|
D|15-15-15-15-15-15-15-15-15-15-15-15-15-15-15-15-|
A|------------------------16-16-16-16-16-16-16-16-|
E|------------------------------------------------|

Guitar 2 - Tom

Tom plays piano throughout most of the song and the first time
he plays guitar is in the break after the second chorus
e|-------------------------------------|
B|7-------6-------7--------------------|
G|6-------6-------6-------555556666666-|
D|8-(x16)-8-(x16)-6-(x16)-666666666666-|
A|9-------8-------4--------------------|
E|------------------------666666666666-|

Not so sure on some of this but it should be okay :)
Tap to rate this tab
 
# A B C D E F G H I J K L M N O P Q R S T U V W X Y Z