Song name
# A B C D E F G H I J K L M N O P Q R S T U V W X Y Z

Wild Beasts - When Im Sleepy tab

Guitar 1 - Main riff
e|--------------------------------------|
B|----15---------10---------------------|
G|12----12---11----11------4---4---4----|
D|--16----16---12----12-7-7-7-7-7-7-7-7-|
A|-----------------------6---6---6---6--|
E|--------------------------------------|

Chords at the end
e|--------------------|
B|---15-----10--------|
G|---12-----11--4bbbb-|
D|16-----12-12--7bbbb-|
A|-------12-----6bbbb-|
E|--------------------|

Finish on this
e|-----|
B|15~~-|
G|12~~-|
D|16~~-|
A|-----|
E|-----|

Guitar 2

Uses a lot of reverb, something along these lines
e|---------------------17~~~~~~~~~~~~~~~~~~~~-|
B|19~~~~~~~~~~~~~~~~~~~14~~~~~~~~------14~~~~-|
G|-------------------------------14~~~~-------|
D|16~~~~~~~~~~~~~~~~~~~-----------------------|
A|--------------------------------------------|
E|--------------------------------------------|

e|---------------------17~~~~~~~~~~~~~~~~~~~-|
B|19~~~~~~~~~~~~~~~~~~~---------14~~~~-------|
G|---------------------14~~~~~~~------14~~~~-|
D|16~~~~~~~~~~~~~~~~~~~----------------------|
A|-------------------------------------------|
E|-------------------------------------------|

Occasionally changes to somethign like this
e|---------------------17~~~~~~~~~~~~~~~~~~-|
B|19~~~~~~~~~~~~~~~~~~~15~~~~~~~~~~~~~~~~~~-|
G|------------------------------------------|
D|16~~~~~~~~~~~~~~~~~~~---------------------|
A|------------------------------------------|
E|------------------------------------------|
Tap to rate this tab
 
# A B C D E F G H I J K L M N O P Q R S T U V W X Y Z