Song name
# A B C D E F G H I J K L M N O P Q R S T U V W X Y Z

Wild Beasts - Loop The Loop tab

-------------------------------------------------------------------------------
			     Loop the Loop - Wild Beasts
-------------------------------------------------------------------------------

Tabbed by: Bridge Williams
Email: bridgewilliams@hotmail.co.uk

There are two guitars in this, but I have only tabbed one (maybe a mix of the two)
I tabbed this to cover acoustically so it may not be exactly as the record in places,
but overall works well.

Particularly in the verse, the thumb does the root note on every beat
and the notes in between are triplets, listen to it and you'll get the rhythm.

Tuning: Drop D (capo on 3rd fret)

INTRO and VERSE

e|-----------5-----------------5-----------------5-----------------5---------|
B|--0h1---------------0h1---------------0h1---------------0h1----------------|
G|-------2-------2---------2-------2--------2--------2---------2---------2---|
D|---------------------------------------------------------------------------|
A|--0--------0--------0--------0--------0--------0--------0--------0---------|
E|---------------------------------------------------------------------------|

e|-----------3-----------------3-----------------3--------2--------0---------|
B|---------------------------------------------------------------------------|
G|--0-----------------0-----------------0------------------------------------|
D|-----2----------2------2----------2------2----------2--------2--------2----|
A|--------2-----------------2-----------------2------------------------------|
E|--2--------2--------2--------2--------2--------2--------2--------2---------|

BRIDGE

e|--------------------------------------|---------------------------------------------|
B|--5--------5--------5--------5--------|--------7--------7--------7--------7---------|
G|-----5--------5--------5--------5-----|x2---------7--------7--------7--------7------|x2
D|--------7--------7--------7--------7--|--------------7--------7--------7---------7--|
A|--0--------0--------0--------0--------|---------------------------------------------|
E|--------------------------------------|--------0--------0--------0--------0--------0|

"Is what it can't recognise…"

PRE-CHORUS BRIDGE

e|--------------------------------------|---------------------------------------------|
B|-----------3-----------------3--------|-----------------1---------------------------|
G|--------4--------4--------4--------4--|x2------------0---------0-------0--------0---|x2
D|-----0--------0--------0--------0-----|-----------2--------2--------2--------2------|
A|--2-----------------2-----------------|--------0-----------------0--------0---------|
E|--------------------------------------|---------------------------------------------|

"I've made enough enemies…"

CHORUS

e|---------------------------------------------------------------------------|
B|-----------5-----5-----------5-----5-----------8-----8-----------8-----0---|
G|-----0-----------------0-----------------0-----------------0---------------|
D|--------5-----------------5-----------------9-----------------9------------|
A|--3-----------3-----3-----------3-----3/7---------7-----7-----------7------|
E|---------------------------------------------------------------------------|

e|---------------------------------------------------------------------------||------|
B|-----------------------------------------------0-----0-----------0-----0---||------|
G|-----------4-----4-----------4-----0-----0-----------------0---------------||---0--|
D|-----5-----------------5--------------------5-----------------5------------||---7--|
A|--------5-----------------5-----------3-----------3-----3-----------3------||---5--|
E|--5-----------5-----5-----------5------------------------------------------||------|
For 2 bars, then VERSE

It then repeats the various parts…enjoy!

************************************

| /   slide up
| \   slide down
| h   hammer-on
| p   pull-off
| ~   vibrato
| +   harmonic
| x   Mute note
| b   Bend
| pb  Pre-bend
| br  Bend release
| pbr Pre-bend release
| brb Bend release bend

************************************
Tap to rate this tab
# A B C D E F G H I J K L M N O P Q R S T U V W X Y Z