Song name
# A B C D E F G H I J K L M N O P Q R S T U V W X Y Z

Wild Beasts - Reach A Bit Further tab

-----------------------------------------------------------------------------
			   REACH A BIT FURTHER - Wild Beasts
-----------------------------------------------------------------------------
Tabbed by: Oliver Reynolds		
Email: oli_kester@hotmail.co.uk

Tuning: EADGBe (standard tuning)
 
This is an acoustic cover version of the song. It fits well over the original 
recording, but may not be identical to the way it is played by the band. 
There are two guitar parts, this tab representing the main one.
Vocals are included above the tab to better illustrate the rhythmn.

------Main picking lick-----------------------------------------------------|

This main lick is repeated four times up to the singer changing. The lyrics 
are to show when the transition of vocal parts occurs.


  "I was crude	    I was lewd	    I was rude	         I was not in the..."

e|--------------------------------------------------------------------------|
B|------------11------------------11--------------13----------------13------|
G|---------------12----------------------------------10---------------------|
D|------12----------12------12-------------12---------------12--------------|
A|---10----10------------10----10-------10----10---------10----10-----------|
E|--------------------------------------------------------------------------|


  "...moo - - - d"   						 "It's a..."

e|-------------------------------------------------------------------------|
B|-------------------------------------------------------------------------|
G|-----------12--12-----------12--12------------12--12------------12-------|
D|------------------------------------------------------------------------|x4
A|------10--------------10----------------10--------------10---------------|
E|---11----11--------11----11----------11----11--------11----11------------|


------Transition between vocal parts----------------------------------------|


"...	peculiar	 stance"		"It's me reaching for the..."

e|--------------------------------------------------------------------------|
B|------------11------------------11--------------10---------------10-------|
G|---------------12----------------------------------10---------------------|
D|------12----------12------12-------------10-----------10----10------------|
A|---10----10------------10----10--------8----8-------------8----8----------|
E|--------------------------------------------------------------------------|

  "...o - - - - - - - live	       branch"

e|--------------------------------------------------------------------------|
B|--------------------------------------------------------------------------|
G|-----------7----7------------7---7-------------7---7-------------7--------|
D|--------------------------------------------------------------------------|
A|------5---------------5-----------------5-----------------5---------------|
E|---6-----6---------6-----6-----------6-----6-----------6-----6------------|



  "Yes I will do all the things that you ask of me..."

Thanks for using my tab. If you find any mistakes, or could suggest any
improvements, my e-mail address is at the top. Please rate!



************************************

| /   slide up
| \   slide down
| h   hammer-on
| p   pull-off
| ~   vibrato
| +   harmonic
| x   Mute note
| b   Bend
| pb  Pre-bend
| br  Bend release
| pbr Pre-bend release
| brb Bend release bend

************************************
Tap to rate this tab
# A B C D E F G H I J K L M N O P Q R S T U V W X Y Z