Song name
# A B C D E F G H I J K L M N O P Q R S T U V W X Y Z

Wild Beasts - Bed Of Nails Acoustic tab

Bed of Nails / "Long Way from Home" Istanbul Acoustic

Took tab based on the video and some by ear.

Capo on the 3rd fret (tab refering to capo)

Obs: On |-0-6-7-7-| use pinky, ring and middle finger, leave your index finger for the bar 
on |-5-6-5-7-|, just taking your ring finger (it's easier that way).


e|-0----|  e|-5----|  e|-0----|  e|-0----|  e|-5----|  e|-1----|  e|-3----|
B|--6---|  B|--6---|  B|--1---|  B|------|  B|--3---|  B|--3---|  B|--0---|
G|---7--|  G|---5--|  G|---2--|  G|--7---|  G|---3--|  G|---2--|  G|---0--|
D|----7-|  D|----7-|  D|----2-|  D|------|  D|----5-|  D|------|  D|------|
A|------|  A|------|  A|------|  A|------|  A|------|  A|------|  A|------|
E|------|  E|------|  E|------|  E|------|  E|------|  E|------|  E|----3-|

   Opening (repeat this twice)
e|--0-----0-----0-----0-----5-----5-----5-----5---------------------------|
B|---6-----6-----6-----6-----6-----6-----6-----6--------------------------|
G|----7-----7-----7-----7-----5-----5-----5-----5-------------------------|
D|-----7-----7-----7-----7-----7-----7-----7-----7------------------------|
A|------------------------------------------------------------------------|
E|------------------------------------------------------------------------|

   I Would lie anywhere with you...
e|--0-----0-----0-----0-----5-----5-----5-----5---------------------------|
B|---6-----6-----6-----6-----6-----6-----6-----6--------------------------|
G|----7-----7-----7-----7-----5-----5-----5-----5-------------------------|
D|-----7-----7-----7-----7-----7-----7-----7-----7------------------------|
A|------------------------------------------------------------------------|
E|------------------------------------------------------------------------|

   Oh, oh Ophelia, i feel you full...
e|--0-----0-----0-----0-----0-----0-----0-----0-----0-----0-----0-----0---|
B|---1-----1-----1-----1--------------------------------------------------|
G|----2-----2-----2-----2----3-----3-----3-----3-----3-----3-----3-----3--|
D|-----2-----2-----2-----2------------------------------------------------|
A|------------------------------------------------------------------------|
E|------------------------------------------------------------------------|

   I love Frankenstein in nature and design, Like the Shelly's on their very first
e|--5-----5-----5-----5-----5-----5-----5-----5----------------------------|
B|---3-----3-----3-----3-----3-----3-----3-----3---------------------------|
G|----3-----3-----3-----3-----3-----3-----3-----3--------------------------|
D|-----5-----5-----5-----5-----5-----5-----5-----5-------------------------|
A|-------------------------------------------------------------------------|
E|-------------------------------------------------------------------------|

   time, When our bodies become electrified, Together we bring this creature
e|--1-----1-----1-----1-----1-----1-----1-----1----------------------------|
B|---3-----3-----3-----3-----3-----3-----3-----3---------------------------|
G|----2-----2-----2-----2-----2-----2-----2-----2--------------------------|
D|-----0-----0-----0-----0-----0-----0-----0-----0-------------------------|
A|-------------------------------------------------------------------------|
E|-------------------------------------------------------------------------|

   alive, It's Alive, It's Alive,    It's Aliiii-i-i-ive
e|--0-----0-----0-----0-----0-----0-----0-----0-----3-----3----------------|
B|---1-----1-----1-----1-----1-----1-----1-----1-----0-----0---------------|
G|----2-----2-----2-----2-----2-----2-----2-----2-----0-----0--------------|
D|-----2-----2-----2-----2-----2-----2-----2-----2-------------------------|
A|-------------------------------------------------------------------------|
E|-----------------------------------------------------3-----3-------------|
Tap to rate this tab
 
# A B C D E F G H I J K L M N O P Q R S T U V W X Y Z