Song name
# A B C D E F G H I J K L M N O P Q R S T U V W X Y Z

Wild Belle - Keep You tab

Wild Belle - Keep You
http://wildbellemusic.tumblr.com/
http://wildbelle.bandcamp.com/

Chords are Dm, Am, Gm over and over.

x-55---55---55---55---33---11---11---11---|
x-66---55---55---55---33---33---33---33---|
x-77---55---55---55---33---22---22---22---|
x-77---77---77---77---33---00---00---00---|
------------------------------------------|
------------------------------------------|

Don't feel like putting it in time and adding the words, so play along with the
music to figure it out, and then re-do this tab!

For the little downward 3 string arpeggios:

--5------5------3------1-----|
---6------5------3------3----|
----7------5------3------2---|
-----------------------------|
-----------------------------|
-----------------------------|

Not more more than that
Tap to rate this tab
# A B C D E F G H I J K L M N O P Q R S T U V W X Y Z