Guitaretab - guitar tabs
Song name
# A B C D E F G H I J K L M N O P Q R S T U V W X Y Z

Wild Cherry - Play That Funky Music tab

Play that funky music solo - Wild Cherry

Tabbed by:ZedLep19
Email:Zed_Leppelin_14@hotmail.com

i think it's right for the most part.  its my first tab so give me a break

Tuning: standard (EADGBE)
e|----------------------------------------15b17-15b17-15b17r15--12h15p12----|
B|--------------------------15b17~r15-12------------------------------------|
G|-----------12h-14-12------------------------------------------------------|
D|--12h-14------------------------------------------------------------------|
A|--------------------------------------------------------------------------|
E|--------------------------------------------------------------------------|
[ Tab from: http://www.guitaretab.com/w/wild-cherry/20890.html ]
e|-----------12--------15-------15--------15--------------------------------|
B|-15-15b17~----15b17~----15b17-----15b17----15b17-12-----------12-14b------|
G|-----------------------------------------------------14-12----12-14b------|
D|-----------------------------------------------------------14-12-14b------|
A|--------------------------------------------------------------------------|
E|--------------------------------------------------------------------------|

e|-------------15b17r15-12~-17b19-17b19-15~----15------------15-------15----|
B|-15b17r15-12------------------------------15-----17--15h17----15h17-------|
G|--------------------------------------------------------------------------|
D|--------------------------------------------------------------------------|
A|--------------------------------------------------------------------------|
E|--------------------------------------------------------------------------|

e|-------15-15b17-15--------------------------------------------------------|
B|-15h17-------------17-----------------------------------------------------|
G|--------------------------------------------------------------------------|
D|--------------------------------------------------------------------------|
A|--------------------------------------------------------------------------|
E|--------------------------------------------------------------------------|

| /  slide up
|   slide down
| h  hammer-on
| p  pull-off
| ~  vibrato
| +  harmonic
| x  Mute note
| b  Bend
===============================================================================
Related for Play That Funky Music tab