Song name
# A B C D E F G H I J K L M N O P Q R S T U V W X Y Z

Wild Cherry - Play That Funky Music tab

hey this is my first tab so dontbe to harsh lol!!!!!!!!!!!

if you have any corrections email me at kaylahamlin123@hotmail.com
or just 4 fun

thanx :{D

e--------------------------------------|
b--------------------------------------|
g--------------------------------------|
d-7-5---5------------------------------|
a-----7---7-5-7-7-5-7-5----------------|
E-----------------------7-5-3-0--------|

e--------------------------------------|
b--------------------------------------|
g--------------------------------------|
d--------------------------------------|
a---7-5-7-----5h7-----7-5-7-----5h7----|
E-0-------5h7-----0-0-------5h7--------| x2

e--------------------------------------|
b--------------------------------------|
g-----7-5-7-----5h7-----7-5-7------5h7-|
d-0-0-------5h7-----0-0-------5h7------|
a--------------------------------------|
E--------------------------------------|

e--------------------------------------|
b--------------------------------------|
g--------------------------------------|
d--------------------------------------|
a-----7-5-7-----5h7-----7-5-7-----5h7--|
E-0-0-------5h7-----0-0-------5h7------|

e--------------------------------------|
b--------------------------------------|
g--------------------------------------|
d-7-5---5------------------------------|
a-----7---7-5-7-7-5-7-5----------------|
E-----------------------7-5-3-0--------|
Tap to rate this tab
# A B C D E F G H I J K L M N O P Q R S T U V W X Y Z