Song name
# A B C D E F G H I J K L M N O P Q R S T U V W X Y Z

Wild Cub - Thunder Clatter Acoustic tab

-------------------------------------------------------------------------------
			     Thunder Clatter (Acoustic) - Wild Cub
-------------------------------------------------------------------------------
Tabbed by: Tyler Blake
E-mail: tyler_blake@rocketmail.com

Tuning: Standard


PLEASE READ FIRST: this a tab for an acoustic version of the song, and I figured out the 
tab by watching this exact video:

https://www.youtube.com/watch?v=bFcoArCkM-4

So please watch that video to get the strumming patterns down, all the times I use for 
the parts are from the video as well.


MAIN RIFF that is repeated throughout
e|---------------------------------------------------------------------------|
B|---------------------------------------------------------------------------|
G|---6--------------------------------6--------------------------------------|
D|------8--6------8p6--------------------8--6------6h8--6h8------------------|
A|------------9b-------9--6--------------------9b----------------------------|
E|---------------------------------------------------------------------------|
                                                                               X2
e|---------------------------------------------------------------------------|
B|---------------------------------------------------------------------------|
G|---6-----------------------------------------------------------------------|
D|------8--6------8p6----------------------6-----6-----6---------------------|
A|------------9b-------9--6-----------6h9-----9-----9-----9------------------|
E|---------------------------------------------------------------------------|


VERSE (0:16-0:32) Only the first verse is played with the slides by the lead guitar
     B	       Db        B        Db     F#
e|---7\-------9\--------7\-------9\------------------------------------------|
B|---7\-------9\--------7\-------9\-----11-----------------------------------|
G|---8\-------10\-------8\-------10\----11-----------------------------------|
D|---9\-------11\-------9\-------11\----11-----------------------------------| X2
A|---9\-------11\-------9\-------11\----9------------------------------------|
E|---7\-------9\--------7\-------9\------------------------------------------|


CHORUS (0:33-0:48)
     B       Db      Ebm     F#
e|---7-------9---------------------------------------------------------------|
B|---7-------9-------7-------11----------------------------------------------|
G|---8-------10------8-------11----------------------------------------------|
D|---9-------11------8-------11----------------------------------------------| X2
A|---9-------11------6-------9-----------------------------------------------|
E|---7-------9---------------------------------------------------------------|


INTERLUDE (2:42-2:59)
     B       Db     Bbm      B
e|---7-------9-------6-------7-----------------------------------------------|
B|---7-------9-------6-------7-----------------------------------------------|
G|---8-------10------6-------8-----------------------------------------------|
D|---9-------11------8-------9-----------------------------------------------| X2
A|---9-------11------8-------9-----------------------------------------------|
E|---7-------9-------6-------7-----------------------------------------------|

*The second guitar in the video pretty much just plays minor alterations of the verse 
and chorus over everything, easy to figure out by watching/listening to the video.


The order of the song goes:
Main Riff
Verse
Chorus
Main Riff
Verse
Chorus
Main Riff
Verse
Chorus
Main Riff
Interlude
Chorus
Main Riff


Lyrics:
(VERSE)
I see you hidden in the night I found you
I see you separate from the others.
Bent crooked in the light around you
Bathing´╗┐ in the sight of the others.

(CHORUS)
I couldn't say what I was thinking
My heart shrinking
Two sad sparks blinking in the sun
Wait one minute
I had to listen for it
It was hidden in the fall

(MAIN RIFF)
Hidden in the fall
Waiting on love to call
Hidden in the fall

(VERSE)
I met you in the dead of winter
I stood stranded in the water
Dug deeper than a crooked splinter
I turned away from all the others

(CHORUS)
I couldn't say what I was thinking
My heart shrinking
Two sad sparks blinking in the sun
Wait one minute
I had to listen for it
It was hidden in the fall

(MAIN RIFF)
Hidden in the fall
Waiting on love to call
Hidden in the fall

(VERSE)
Sad hopes I'd hidden under
Tangled inside of me
You spoke like broken thunder
Deep´╗┐ into the center of me.

(CHORUS)
I couldn't say what I was thinking
My heart shrinking
Two sad sparks blinking in the sun
Wait one minute
I had to listen for it
It was hidden in the fall

(MAIN RIFF)
Hidden in the fall
Waiting on love to call
Hidden in the fall

(CHORUS)
I hear it call in the center of it all
You're the love of my life, the love of my life
I hear it all in the center of my heart
You're the love of my life, the love of my life
I hear it call in the center of it all
You're the love of my life, the love of my life
I hear it all in the center of my heart
You're the love of my life, the love of my life


************************************

| /   slide up
| \   slide down
| h   hammer-on
| p   pull-off
| ~   vibrato
| +   harmonic
| x   Mute note
| b   Bend
| pb  Pre-bend
| br  Bend release
| pbr Pre-bend release
| brb Bend release bend

************************************
Tap to rate this tab
 
# A B C D E F G H I J K L M N O P Q R S T U V W X Y Z