Song name
# A B C D E F G H I J K L M N O P Q R S T U V W X Y Z

Wild Eyes - House Of Metal tab

Wild Eyes - House of Metal

tuning: standard



e|---8---7-----------------8---7--------------|
B|-----8---10-8-7-8----------8---10-7-8-7-----|
G|-9---------------------9--------------------|
D|--------------------------------------------|
A|--------------------------------------------|
E|--------------------------------------------|



e|---10-8-7---10-8-7---10-8-7----8-7----------|
B|-8--------8--------8--------10-----7--------|
G|--------------------------------------------|
D|--------------------------------------------|
A|--------------------------------------------|
E|--------------------------------------------|

http://www.lastfm.ru/music/Wild+Eyes
i think, the phrygian mode is used here, so you can improvise ha
Tap to rate this tab
 
# A B C D E F G H I J K L M N O P Q R S T U V W X Y Z