Wild Nothing - Our Composition Book tab

Im still figuring out the chorus parts.

Heres the riff being played over the intro

E-------------------------------------------10-9------------------------|
B --7-5-7-5-7-10-------------7-5-7-5-7-10-7~-----10--7-12-10------------|
G ---------------7-6-7-6-7-9--------------------------------7--7-9-11~--|
D-----------------------------------------------------------------------|
A-----------------------------------------------------------------------|
E-----------------------------------------------------------------------|

E------------------|
B ----10--10-------|
G --11--11--11-7~~-|
D------------------|
A------------------|
E------------------|

I'm not positive these are correct, but I think the chords being played under the intro riff are:

E-----                 E----------|
B---7-                 B----10----|
G --6--   and          G----11----|
D --7--                D----10----|
A --5--                A-----9----|
E------                E----------|


If anyone can help with anything please leave comments!
Tap to rate this tab
 
# A B C D E F G H I J K L M N O P Q R S T U V W X Y Z