Song name
# A B C D E F G H I J K L M N O P Q R S T U V W X Y Z

Wild Nothing - Golden Haze tab

        Refrain x4                      1er riff x3

e|----------------------------|---------------------------------------------|
B|-/9-9-9-8-------------------|-6-6-6-4-----4-4-4-----4-4-4----------3-3-3--|
G|-----8---8-8-8-----8-8-8----|---------5---------3---------3/5-3-----------|
D|---------------8---------6--|---------------------------------------------|
A|----------------------------|---------------------------------------------|
E|----------------------------|---------------------------------------------|

                        2nd riff x4
e|--------------------------------------------------------------------------|
B|-6-6-6-4-----4-4-4----4-4-4-----------------------------------------------|
G|---------5---------3--------5--5-5-5---5-6-8------------------------------|
D|---------------------------------------------6--11-11-11-10---------------|
A|------------------------------------------------------------11-8----------|
E|-----------------------------------------------------------------11-------|

You have to play this track two times for full song.\
Tap to rate this tab
# A B C D E F G H I J K L M N O P Q R S T U V W X Y Z