Song name
# A B C D E F G H I J K L M N O P Q R S T U V W X Y Z

Wild Nothing - The Blue Dress tab

Wild Nothing - The Blue Dress
From the album "Nocturne" (captured tracks 2012).

Tabbed by Isaac Murguia, June 24, 2013.
YouTube: Goadiroth

h = hammer-on
/ = slide up

CHORUS:
         [x3]
e|-----------------|-----------------|
B|-----------------|--------9--------|
G|-------6-6-6h8---|-9-8---8--9-9----|
D|-6--9----------9-|-----9--------11-|
A|-----------------|-----------------|
E|-----------------|-----------------| [x3]

PRE-CHORUS:
e|----------------|------------------|
B|----------------|------------------|
G|-9------9-11----|-----6------------|
D|----11-------11-|-7-9---7----4--2--|
A|----------------|------------------|
E|----------------|------------------| [x2]

Repeat CHORUS [x2]
Repeat PRE-CHORUS [x2]
Repeat CHORUS [x2]

BRIDGE:
e|---------------|-------------------|
B|---------------|-------------------|
G|-11-----9------|-------------------|
D|-----9-----7---|-7/9--7/9--9/11--9-|
A|---------------|-------------------|
E|---------------|-------------------|

Repeat CHORUS [x3]

The end. Please rate! :)
Tap to rate this tab
# A B C D E F G H I J K L M N O P Q R S T U V W X Y Z