Song name
# A B C D E F G H I J K L M N O P Q R S T U V W X Y Z

Wild Nothing - Shadow tab

Song: Shadow 
Artist: Wild Nothing
Album: Nocturne

/ = slide
~ = hold the note
h = hammer-on

Main riff:
@0:13, 0:40, 1:08, 2:18, 2:46, 3:28

e|------------------------------|
B|------------------------------|
G|--/5-5-5-----5-5-/8-8-6-------|
D|-----------8------------------|
A|------------------------------|
E|------------------------------| 

e|------------------------------|
B|------------------------------|
G|--/5-5-5-----5-5-/8-8-6-------|
D|-----------8------------------|
A|------------------------------|
E|------------------------------| 

e|--------------------------------|
B|---------------------6----------|
G|--/5-5-5----5-5-/8-8---5--------|
D|----------8--------------8~--6~-|
A|--------------------------------|
E|--------------------------------|


Orchestral transposition:
@1:23

e|----------------------------------------------|
B|-----------------6----------------------------|
G|--5---5~--/8-8-8---5------5---5~---8-5--------|
D|----6----------------8~-----6----------8~-----|
A|----------------------------------------------|
E|----------------------------------------------|


Guitar solo/interlude:
@3:00

e|-------------------------------------------------|
B|------6----------6-------------------------------|
G|---8----5~----8----5------------6~-8----6~-8-----|
D|---------------------8~-----6h8-----8~------8~---|
A|-------------------------------------------------|
E|-------------------------------------------------|x2

Tap to rate this tab
# A B C D E F G H I J K L M N O P Q R S T U V W X Y Z