Song name
# A B C D E F G H I J K L M N O P Q R S T U V W X Y Z

Wild Nothing - Counting Days tab

Song: Counting Days
Artist: Wild Nothing
Album: Nocturne

Tabbed by zaprox913


Main riff:
(picked very fast)
e|-----------------------------------------------------|
B|-----------------------------------------------------|
G|-9-9-7---7--------7--------9-9-7---7-----------------|
D|-------9---7-7--9---9------------9-----7-7-9-9-------|
A|-----------------------------------------------7-----|
E|-----------------------------------------------------|x4


Verse:
(played throughout)
e|-----------------------------------|
B|-----------------------------------|
G|-4-----4-----7------4--------------|
D|---5-----5-----5------5------------|
A|-----------------------------------|
E|-----------------------------------|


Chorus:
e|---------------------------------------------------------------|
B|---------------------------------------------------------------|
G|-----7--5--4-------------9-7----------7-------7--5--4----------|
D|--5-----------7---5-----------9-----9----5--------------7---5--|
A|---------------------------------------------------------------|
E|---------------------------------------------------------------|

e|-------------------------|
B|-------------------------|
G|--9-7------------7-------|
D|-------9-------9----5----|
A|-------------------------|
E|-------------------------|


Interlude:
e|--------------------------|
B|--------------------------|
G|--9-9-9-9-9-9-12----------|
D|------------------12------|
A|--------------------------|
E|--------------------------|x4
Tap to rate this tab
# A B C D E F G H I J K L M N O P Q R S T U V W X Y Z