Song name
# A B C D E F G H I J K L M N O P Q R S T U V W X Y Z

Wild Nothing - Ocean Repeating Big Eyed Girl tab

Wild Nothing - Ocean Repeating (Big-Eyed Girl)
From the EP "Empty Estate" (Captured Tracks 2013).

Tabbed by Isaac Murguia, September 8, 2013.
Originally uploaded to Ultimate-Guitar.com
YouTube: Goadiroth

HOOK:
e|--------------------|----------------------------------|
B|--------------------|----------------------------------|
G|-10----7------------|-------5----7----8----------------| "A"
D|----7----5--7-------|---7-8---5----8----7-7\-------7h8-|
A|--------------5--5\-|-5-------------------------10-----|
E|--------------------|----------------------------------| [x1]

e|--------------------|----------------------------------|
B|--------------------|----------------------------------|
G|-10----7------------|-------5----7----8----------------| "B"
D|----7----5--7-------|---7-8---5----8----7-7\-------7-8-|
A|--------------5--5\-|-5-------------------------10-----|
E|--------------------|----------------------------------| [x2]

e|--------------------|---------------------------------|
B|--------------------|---------------------------------|
G|-10----7------------|-------5----7----8---------------| "C"
D|----7----5--7-------|---7-8---5----8----7-7\-----5-7\-|
A|--------------5--5\-|-5-------------------------------|
E|--------------------|---------------------------------| [x1]

CHORUS (keyboard):
e|-----------10------------|-----------------10--------|
B|-----11--------13-----11-|-10-11-----11--------13----|
G|-12-----12--------12-----|-------12-----12--------10-| "A"
D|-------------------------|---------------------------|
A|-------------------------|---------------------------|
E|-------------------------|---------------------------| [x1]

e|-----------10------------|--------------------10--------|
B|-----11--------13-----11-|-10-11-10-----11--------13----|
G|-12-----12--------12-----|----------12-----12--------10-| "B"
D|-------------------------|------------------------------|
A|-------------------------|------------------------------|
E|-------------------------|------------------------------| [x3]

Repeat HOOK "B" [x3]
Repeat HOOK "C" [x1]

Repeat CHORUS "B" [x4]

BRIDGE:
e|--------------------|------------------------|
B|--------------------|------------------------|
G|-10----7------------|-------5----7----8------|
D|----7----5--7-------|---7-8---5----8----7-7\-|
A|--------------5--5\-|-5----------------------|
E|--------------------|------------------------|

e|--------------------------|
B|--------------------------|
G|--------10----7-----------|
D|----7-8----7----5--7------|
A|-10------------------5-5\-|
E|--------------------------| [x2]

Big, big eyed girl... eyed girl...

Repeat HOOK "B" [x3]
Repeat HOOK "C" [x1]
Repeat BRIDGE

End. Please rate!
Tap to rate this tab
# A B C D E F G H I J K L M N O P Q R S T U V W X Y Z