Song name
# A B C D E F G H I J K L M N O P Q R S T U V W X Y Z

Wild Nothing - Shadow tab

-------------------------------------------------------------------------------
                      Shadow - Wild Nothing (acoustic)
-------------------------------------------------------------------------------
Tabbed by: http://profile.ultimate-guitar.com/throwshapes/

Basically I just tabbed out their live acoustic version from this video:
http://www.youtube.com/watch?v=C4mSw32ZfHw

Please comment with any corrections n_n

Tuning: Standard
Capo on Fret 1

Chords Used:

Cmaj7   x32000
D*      x54030
E*      x7x05x
G       35543x
G6      320000
Am      x02210
D       xx0232
Dsus2   xx0230
Bm      x24432


Guitar 1: Intro Melody
e|--------------------------------------------------------------|
B|--------------------------------------------------------------|
G|-4--4--4-2--4--4--7--7--5-4-----4--4-2--4--4----7--7--5-4-----|
D|--------------------------------------------------------------|
A|--------------------------------------------------------------|
E|--------------------------------------------------------------|

e|--------------------------------------------------------------|
B|--------------------------------------------------------------|
G|-4--4--4-2--4--4--7--7-9--4-2---------------------------------|
D|---------------------------------5----------------------------|
A|--------------------------------------------------------------|
E|--------------------------------------------------------------|


Guitar 2 Intro Chords:

Cmaj7   D*
Cmaj7   D*
Cmaj7   D*      
E*      G

Or you can play the main melody and the chords at the same time
if you are alone, something like this:

e|--------------------------------------------------------------|
B|----0-0-0-----0-0---3-3---0-----0-0-0-----0-0---3-3---0-------|
G|---0------2-------0-----5------0------2-------0-----5---------|
D|--2---------------------------2-------------------------------|
A|-3----------3-------5--------3----------3-------5-------------|
E|--------------------------------------------------------------|


e|--------------------------------------------------------------|
B|----0-0-0-----0-0---3-3-5----0----3---------------------------|
G|---0------2-------0---------0-2---4---------------------------|
D|--2------------------------2------5---------------------------|
A|-3----------3-------5-----3-------5---------------------------|
E|----------------------------------3---------------------------|

Verse 1:

Cmaj7
Oh 
D*
why      
Cmaj7
is your hate 
D*
so addicting and I
Cmaj7
Well 
D*                      E*
I wonder where you've been
G
And I'll see you under


(Intro Riff)

Verse 2:

Cmaj7
I 
D*
try 
Cmaj7
to feel 
D*              Cmaj7
something for you
D*                       E*
But that's all that I can do
G
Give my shadow to you


(Intro Riff)

Bridge Chords:

Cmaj7           G6
Am              D/Dsus2
Cmaj7           G6
Am              D/Dsus2
D*              Cmaj7   D*
D/Dsus2         Cmaj7

D*              Cmaj7
D*              Cmaj7
D*              Cmaj7
D*              Cmaj7

Verse 3:

Cmaj7
Do 
D*
you 
Cmaj7
ever 
D*
see me at night 
Cmaj7   
And does it 
D*              E*
please you at all 
G
When you head up the wall


(Intro Riff)

Verse 4:

Cmaj7
I'd 
D*
go 
Cmaj7
with you 
D*
if you asked me to
Cmaj7   D*                      E*
But     we wouldn't get too far
G
Two strangers in the dark.


(Intro Riff)


2nd Bridge Chords:

   D*           Cmaj7               Am          D
e|---------0------------------------0-------0---2-------2----------|
B|-0---0-------0--------0-----------1---1-------3---3-----3---3----|
G|-0-----0-----0----0-----0---0-----2-----2-----2-2---2-----2------|
D|---4------------2---2-----2---------2---------0------------------|
A|-5-----------3--------------------0------------------------------|
E|-----------------------------------------------------------------|

   D*           Cmaj7               Am          Bm
e|---------0------------------------0-------0----------------------|
B|-0---0-------0--------0-----------1---1-------3-------3----------|
G|-0-----0-----0----0-----0---0-----2-----2-----4---4-----4---4----|
D|---4------------2---2-----2---------2-----------4---4-----4------|
A|-5-----------3--------------------0-----------2------------------|
E|-----------------------------------------------------------------|


Play the intro riff until the end
Tap to rate this tab
 
# A B C D E F G H I J K L M N O P Q R S T U V W X Y Z