Song name
# A B C D E F G H I J K L M N O P Q R S T U V W X Y Z

Wild Nothing - Summer Holiday tab

Wild Nothing - Summer Holiday
From the album "Gemini" (Captured Tracks 2010).

Tabbed by Isaac Murguia, February 2014.
Originally uploaded to Ultimate-Guitar.com
Contact: www.youtube.com/user/Goadiroth

\/ = triplets
/ = slide up
\ = slide down

INTRO (rhythm guitar): [x2]
e|------------------------------------------------|
B|-12-12-12--12-12-12-12-12-12--12-12-12-12-12-12-|
G|-13-13-13--13-13-13-13-13-13--13-13-13-13-13-13-|
D|-14-14-14--14-14-14-14-14-14--14-14-14-14-14-14-|
A|-11-11-11--11-11-11-11-11-11--11-11-11-11-11-11-|
E|-\------/---------------------------------------|

e|------------------------------------------------|
B|-12-12-12--12-12-12-12-12-12--12-12-12-12-12-12-|
G|-13-13-13--13-13-13-13-13-11--11-11-11-11-11-13-|
D|-14-14-14--14-14-14-14-14-11--11-11-11-11-11-14-|
A|-11-11-0---0--0--0--0--0--0---0--0--0--0--0--0--|
E|-\------/---------------------------------------|

INTRO (lead enters with rhythm):
e|---------------------------------|--------------------------|
B|-9--9-7-9--9-7-9-9--12--12-12-12-|-9--9-7-9--9-7-9-7-5--5-5-|
G|---------------------------------|--------------------------|
D|---------------------------------|--------------------------|
A|---------------------------------|--------------------------|
E|---------------------------------|--------------------------| [x2]

VERSE:
e|------------------------|-------------------------|
B|-9--9-7-9--9-7-9-7-10-9-|-999-9-9-9-10-9-7-777777-|
G|------------------------|-\-/---------------------|
D|------------------------|-------------------------|
A|------------------------|-------------------------|
E|------------------------|-------------------------|

e|--------------------------|------------------|
B|-999--9-7-9--9-7-9-7-10-9-|------------------|
G|-\-/----------------------|-66-6666-4-444444-|
D|--------------------------|------------------|
A|--------------------------|------------------|
E|--------------------------|------------------|

e|----------------------------|------------------|
B|-9--7-7-10-9--999-77-10-999-|-66-6666-4-444444-|
G|----------------------------|------------------|
D|----------------------------|------------------|
A|----------------------------|------------------|
E|----------------------------|------------------| [x2]

CHORUS (lead): [x2]
e|-------------12-12-11-11----------|      |-14-14-14/16\14-12------------------|
B|-14-12-14-12-------------14-14-12-|      |--------------------14-14-12--14-12-|
G|----------------------------------|      |------------------------------------|
D|----------------------------------|      |------------------------------------|
A|----------------------------------|      |------------------------------------|
E|----------------------------------| [x2] |------------------------------------| [x2]

CHORUS (rhythm): [x2]
e|------------------------------|      |-------------------|
B|------------------------------|      |-------------------|
G|------------------------------|      |-------------------|
D|-4-4444-11--11-11-11-11-11-11-|      |-9-9-911--7-777777-|
A|-4-4444-11--11-11-11-11-11-11-|      |-9-9-911--7-777777-|
E|-2-2222-9---9--9--9--9--9--9--| [x2] |-7-7-79---5-555555-| [x2]

Repeat INTRO
Repeat VERSE

CHORUS LEAD same as before, but rhythm goes like this:

CHORUS PRE-BRIDGE (rhythm):
e|------------------------------|      |-------------------|
B|------------------------------|      |-------------------|
G|------------------------------|      |-------------------|
D|-4-4444-11--11-11-11-11-11-11-|      |-9-9-911--7-777777-|
A|-4-4444-11--11-11-11-11-11-11-|      |-9-9-911--7-777777-|
E|-2-2222-9---9--9--9--9--9--9--| [x2] |-7-7-79---5-555555-| [x2]

CHORUS PRE-BRIDGE (rhythm, continued):
e|------------------------------|      |-------------------|-----------------|
B|------------------------------|      |-------------------|-----------------|
G|------------------------------|      |-------------------|-----------------|
D|-4-4444-11--11-11-11-11-11-11-|      |-9-9-911--7-777777-|-9-9999-9-999999-|
A|-4-4444-11--11-11-11-11-11-11-|      |-9-9-911--7-777777-|-9-9999-9-999999-|
E|-2-2222-9---9--9--9--9--9--9--| [x2] |-7-7-79---5-555555-|-7-7777-7-777777-|

BRIDGE (lead):
e|------------------------------|----------------------------|      |----|
B|-14-12-----12---------------9-|-14-12-----12---------------|      |----|
G|--------13----13--9-9--9-11---|--------13----13--9-9--9--8-|      |-9--|
D|------------------------------|----------------------------|      |----|
A|------------------------------|----------------------------|      |----|
E|------------------------------|----------------------------| [x4] |----|

BRIDGE (rhythm):
e|-5----7----|      |-5----7----777-|
B|-5----7----|      |-5----7----777-|
G|-6----8----|      |-6----8----888-|
D|-7----9----|      |-7----9----999-|
A|-7----9----|      |-7----9----999-|
E|-5----7----| [x7] |-5----7----777-|

Bass only...

Repeat CHORUS (original, not 'pre-bridge')
Repeat INTRO [x4]

END CHORD:
e|--------|
B|-12\----|
G|-13\----|
D|-14\----|
A|--------|
E|--------|

End. Please rate! :)
Tap to rate this tab
# A B C D E F G H I J K L M N O P Q R S T U V W X Y Z