Song name
# A B C D E F G H I J K L M N O P Q R S T U V W X Y Z

Wilde Zeiten - Liebesbrief chords

Highlighted       Show chord diagrams
-------------------------------------------------------------------------------
			     Liebesbrief - Wilde Zeiten
-------------------------------------------------------------------------------
Tabbed by: Leonidas 
Email: lionfalcon@web.de

Tuning: Standart


When you read this tab please consider, that this is only an ATTEMPT, to find the 
suitable chords for this song. please send suggestions for imroving this tab/
chords to my e-mail adress: lionfalcon@web.de

and in german: 
wenn ihr diesen tab ausprobiert, nehmt bitte zur kenntnis, dass dies nur der 
versuch ist, die korrekten akkorde zusammenzustellen. mir ist durchaus bewusst, 
dass dieser tab verbesserungsfähig ist, daher bitte ich ausdrücklich um 
verbesserungsvorschläge an meine e-mail adresse: lionfalcon@web.de

so now the chords:

Intro: G5 (G)

G5 (G)
Ich kau immer noch am Stift,
B5 (B7)
ich bin noch wach und schreib an dich,
Em (Em)
doch ich find die Worte nicht,
D5 (D/F#)
ich weiß nur eins ich liebe dich.
G5 (G)
Ich denk so oft ich kriegs nicht hin,
B5 (B7)
und du hast mehr als mich verdient,
C5 (C/G)
was ich dir geben kann bin ich,
D5 (D/F#)
und dass ich weiß ich liebe dich. 


here the tab for the chords I use:

Original:           |Accoustic:   
    G5   B5 Em D5 C5|G  B7 Em D/F# C/G
e|---x---x--x--x--x-|-3--2--0--2----0-----------------------------------------|
B|---x---x--x--x--x-|-3--0--0--3----1-----------------------------------------|
G|---x---4--0--7--5-|-0--2--0--2----0-----------------------------------------|
D|---5---4--2--7--5-|-0--1--2--0----2-----------------------------------------|
A|---5---2--2--5--3-|-2--2--2--0----3-----------------------------------------|
E|---3---x--x--x--x-|-3--x--0--2----3-----------------------------------------|

I think this pattern is repeated during the whole song. The Chords in the brackets 
are those i used to play on the acoustic guitar. In the original song, the pattern 
is played palm muted during the stanzas. The "5" behind the chords means, that 
those chords are played as powerchords ( only the first three notes of the chord).

Und nochmal auf deutsch ;) ich denke das oben beschriebene pattern wiederholt sich 
während des ganzen liedes immer wieder. die akkorde in den klammern sind jene, die 
ich auf der westerngitarre spiele, um barrêgriffe zu vermeiden, damit das lied für 
jeden einfach zu spielen ist ;) während der strophen werden die saiten im original 
gedämpft. während des refrains werden sie dann nicht mehr gedämpft. 

waiting for ur suggestions to play this song for my sweetheart once =)

Tap to rate this tab
 
# A B C D E F G H I J K L M N O P Q R S T U V W X Y Z