Wilderness Crew - Widen Your Eyelids tab

-------------------------------------------------------------------------------
			     Widen Your Eyelids - Wilderness Crew
-------------------------------------------------------------------------------
Tabbed by:Pierre-Maxime

Tuning:EADGBe
  

Guitar Riff 1:
   1 + 2 + 3 + 4 + 1 + 2 + 3 + 4 + 1 + 2 + 3 + 4 + 1 + 2 + 3 + 4 + 
e|-5---x-5---5-x-x-----x-6---6-----5---x-5---5-x-x-----x-6---6-----|
B|-6---x-6---6-x-x-6---x-6---6-----6---x-6---6-x-x-6---x-6---6-----|
G|-5---x-------x-x-7---x-7---7-----5---x-------x-x-7---x-7---7-----|
D|-------------x-x-8---x-----------------------x-x-8---x-----------|
A|-----------------------------------------------------------------|
E|-----------------------------------------------------------------|


Guitar Riff 2:
   1 + 2 + 3 + 4 + 1 + 2 + 3 + 4 + 1 + 2 + 3 + 4 +  1  +  2  +  3  +  4  +
e|-13-----------------------------------------------20-18----16----15----13|
B|-------------------------------------------------------------------------|
G|-------------------------------------------------------------------------|
D|-------------------------------------------------------------------------|
A|-------------------------------------------------------------------------|
E|-------------------------------------------------------------------------|


Piano Part:
   1 + 2 + 3 + 4 + 1 + 2 + 3 + 4 +
e|---------------------------------|
B|---------------------------------|
G|-------5---5-----------3---------|
D|-3---3-3---3-----3-----3---3-----|
A|-3---3-----------1---------1-----|
E|---------------------------------|


Have fun!

http://www.wildernesscrew.com/
Tap to rate this tab
 
# A B C D E F G H I J K L M N O P Q R S T U V W X Y Z