Song name
# A B C D E F G H I J K L M N O P Q R S T U V W X Y Z

Wildhearts - One Love One Life One Girl tab

                            ONE LOVE ONELIFE ONE GIRL
                          As recorded by The Wildhearts
             (From the 2003 Album THE WILDHEARTS MUST BE DESTROYED)

Transcribed by Corey Hunter
www.youtube.com/twinofcocteau


   Intro  
    PM|   PM|   PM    PM|   PM          PM|   PM|   PM    PM|   PM
    E E E E E E E E   E E E E E E E E   E E E E E E E E   E E E E E E E E
||------------------|-----------------|-----------------|-------------------||
||o-----3-----3---5-|-----5---5-3-----|-----------------|------------------o||
||------2-----2---2-|-----2---2-2---4-|-----4-----4---6-|-----6---6-4---2---||
||--0-0---0-0---0---|-0-0---0-----0---|-----4-----4---4-|-----4---4-4-4-----||
||o-----------------|-----------------|-2-2---2-2---2---|-2-2---2----------o||
||------------------|-----------------|-----------------|-------------------||


   Verse
    PM|   PM|   PM    PM|   PM          PM|   PM|   PM    PM|   PM
    E E E E E E E E   E E E E E E E E   E E E E E E E E   E E E E E E E E
||------------------|-----------------|-----------------|------------------||
||o-----3-----3---5-|-----5---5-3-----|-----------------|-----------------o||
||------2-----2---2-|-----2---2-2---4-|-----4-----4---6-|-----6---6-4---2--||
||--0-0---0-0---0---|-0-0---0-----0---|-----4-----4---4-|-----4---4-4-4----||
||o-----------------|-----------------|-2-2---2-2---2---|-2-2---2---------o||
||------------------|-----------------|-----------------|------------------||


  PM|   PM|   PM    PM|   PM|   PM    PM|   PM|   PM    PM|   PM|   PM
  E E E E E E E E   E E E E E E E E   E E E E E E E E   E E E E E E E E
|-----------------|-----------------|-----------------|------------------|
|-----------------|-----------------|-----------------|------------------|
|-----------------|-----------------|-----------------|------------------|
|-----------------|---------------4-|-----4-----4---2-|-----2-----2---2--|
|-----5-----5---7-|-----7-----7---5-|-5-5-5-5-5-5-5-0-|-0-0-0-0-0-0-0-0--|
|-3-3-3-3-3-3-3-3-|-3-3-3-3-3-3-3---|-----------------|------------------|


    PM----------------------------------------------------------------|
  E E E E E E E E   E E E E E E E E   E E E E E E E E   E E E E E E E E
|-----------------|-----------------|-----------------|------------------||
|-----------------|-----------------|-----------------|------------------||
|-----------------|-----------------|-2-2-2-2-2-2-2-2-|-2-2-2-2-2-2-2-2--||
|-----------------|-----------------|-0-0-0-0-0-0-0-0-|-0-0-0-0-0-0-0-0--||
|-2-2-2-2-2-2-2-2-|-5-5-5-5-5-5-5-5-|-----------------|------------------||
|-0-0-0-0-0-0-0-0-|-3-3-3-3-3-3-3-3-|-----------------|------------------||



Tap to rate this tab
# A B C D E F G H I J K L M N O P Q R S T U V W X Y Z