Song name
# A B C D E F G H I J K L M N O P Q R S T U V W X Y Z

Wildhearts - Geordie In Wonderland tab

-------------------------------------------------------------------------------
			     Geordie In Wonderland - Wildhearts
-------------------------------------------------------------------------------
Tabbed by: benguitarguy
Email: dani_california_ben@hotmail.co.uk

This is my first tab.
This should be 100% correct as I have been watching a live video to watch how Ginger plays it.


Tuning: half step down
			      
e|-10-9-7-------------9--7--7----8-8--7------7-------------------------------|
B|-8-------10-8-7-----------7h9--8-8--8-10-8-8-10-10-------------------------|
G|-7-------7-------9--------9----9-9--7------7----9-h-11---------------------|
D|---------------------------------------------------------------------------|
A|---------------------------------------------------------------------------|
E|---------------------------------------------------------------------------|

e|-7----------------------------3--5--2--------------------------------------|
B|-8--10--7--5--7--8--7-3/5/3--3--5--3--------------------------------------|
G|-7--11--7--6--7--9--7-2/4/2--0--2--2--------------------------------------|
D|------------------------------0--2--0--------------------------------------|
A|------------------------------2--0-----------------------------------------|
E|------------------------------3--------------------------------------------|



************************************

| /   slide up
| \   slide down
| h   hammer-on
| p   pull-off
| ~   vibrato
| +   harmonic
| x   Mute note
| b   Bend
| pb  Pre-bend
| br  Bend release
| pbr Pre-bend release
| brb Bend release bend

************************************
Tap to rate this tab
 
# A B C D E F G H I J K L M N O P Q R S T U V W X Y Z