Song name
# A B C D E F G H I J K L M N O P Q R S T U V W X Y Z

Wildhearts - Caffine Bomb tab

INTRO

e---------------------------------------|
b---------------------------------------|
g-9-------9-------9-------9-------9-----|
d-9---9---9---9---9---9---9---9---9-----|
a-7---9---7---9---7---9---7---9---7-----|
E-----7-------7-------7-------7---------|


CHORUS RIFF

  G#        A         B         C#    B
e---------------------------------------------------|
b---------------------------------------------------|
g---------------------------------------------------|
d-6-6-6-6-6-9-7-7-7-7-9-9-9-9-11--11-9--------------|  x 4
a-6-6-6-6-6-9-7-7-7-7-9-9-9-9-11--11-9--------------|
E-4-4-4-4-4-7-5-5-5-5-7-7-7-7-9---9--7--------------|

  B       C#    B       B       E                      B
e-----------------------------------------------------------|
b-----------------------------------------------------------|
g------------------------------9-9-9-9-9-9-9-9--9-9-9-------|
d-9-9-9-9-11-11-9-9-9-9-9------9-9-9-9-9-9-9-9--9-9-9--9----|
a-9-9-9-9-11-11-9-9-9-9-9------7-7-7-7-7-7-7-7--7-7-7--9----|
E-7-7-7-7--9--9-7-7-7-7-7------------------------------7----|
Tap to rate this tab
# A B C D E F G H I J K L M N O P Q R S T U V W X Y Z